Smells Like Teen SpiritCifra Verificada

Nirvana

Tom: F5
  
Riff 2 and Riff 3  
e|---1----|  
B|-1------|  
G|--------|  
D|--------|  
A|--------|  
E|--------|  

Riff 4  

e|-----------------------------------|  
B|-----------------------------------|  
G|-------------3b4-------------------|  
D|-3---2-3-4-4-------3---2-3-8-8-6-6-|  
A|-3---2-3-4-4-------3---2-3-8-8-6-6-|  
E|-1---0-1-2-2-------1---0-1-6-6-4-4-|  

Riff 1 F5 Bb Ab5 Db Riff 2: F (Riff 3) (Riff 2) Load up your guns and bring your friends It's fun to lose and to pretend She's overbored and self assured Oh, no, I know a dirty word (Riff 3) Hello, hello,hello,how low Hello,hello, hello,how low Hello,hello,hello,how low Hello,hello,hello.....
(Riff 1) With the lights out its less dangerous Here we are now entertain us I feel stupid, and contagious Here we are now entertain us A mulatto, An albino, A mosquito My libido Yeah! Hey......Yay!
Riff 4: F5 E5 F5 F#5 B5 Ab5 (Riff 2) I'm worse at what I do best And for this gift I feel blessed Our little group has always been And always will until the end (Riff 3) Hello, hello,hello,how low Hello,hello, hello,how low Hello,hello,hello,how low Hello,hello,hello.....
(Riff 1) With the lights out its less dangerous Here we are now entertain us I feel stupid, and contagious Here we are now entertain us A mulatto, An albino, A mosquito My libido a Denial,a denial, a denial Yeah! Hey......Yay!
Riff 4: F5 E5 F5 F#5 B5 Ab5
Solo:  

e|--------------------------------------------------|  
B|--------------------------------------------------|  
G|-----8-10\---8-8b10r8-6-5--6-5--------------------| (2x)  
D|--10-------6-------------------8-6--8-8b10r8-6-5--|  
A|--------------------------------------------------|  
E|--------------------------------------------------|  


e|----------------------|  
B|----------------------|  
G|----------------------| (4x)  
D|-6-5-6-5-6-5-6p5-5\3--|  
A|----------------------|  
E|----------------------|  

And I forget just why I taste Oh yeah, I guess it makes me smile I found it hard it's hard to find Well, whatever, nevermind (Riff 3) Hello, hello,hello,how low? Hello,hello, hello,how low? Hello,hello,hello,how low? Hello,hello,hello.....
(Riff 1) With the lights out its less dangerous Here we are now entertain us I feel stupid, and contagious Here we are now entertain us A mulatto, An albino, A mosquito My libido a Denial,a denial, a denial Yeah! Hey......Yay!

Compartilhe esta música: novo

QR Code
Copiar