Destino

Nicolas Dutra

Tom: G
Intro: 

E|--------------------------------------|-----------------| 
B|--------------------------------------|-----------------| 
G|--------------------------------------|-----------------| 
D|------------3--------3----------------|-----------------| 3x 
A|-----3-5---3---3-5--3---3-5-----------|-----------------| 
E|-3-5----------------------------------|-----------------| 
G5 F5 Vamos parar um pouco para poder pensar E O que você fez com sua vida e como tudo vai acabar G5 F5 E Lembre de todos os momentos felizes que passamos juntos e tudo que ainda vamos passar G5 F5 Sei que tivemos momentos tristes, mas isso não importa E O que passou não volta mais Am Podemos mudar nosso destino, é só você querer, é só você acreditar
G5 Tudo que foi F5 Tudo que será A#5 C5 Não desista de sonhar G5 Tudo que foi F5 Tudo que será A#5 C5 Devemos sempre acreditar E Não viva do passado Am Nada voltara
Solo( G5 F5 ) 

E|--------------------------------------|-----------------| 
B|--------------------------------------|-----------------| 
G|--------------------------------------|-----------------| 
D|------------3--------3----------------|-----------------| 3x 
A|-----3-5---3---3-5--3---3-5-----------|-----------------| 
E|-3-5----------------------------------|-----------------|

Compartilhe esta música: novo

QR Code
Copiar