In The Aeroplane Over The Sea

Neutral Milk Hotel

Tom: G
G		 Em			     C 
What a beautiful face I have found in this place 
		D 
That is circling all round the sun, 
G		   Em				C 			 
What a beautiful dream that could flash on the screen 
		  D 
in a blink of an eye 
		 G		Em 
and be gone from me soft and sweet 
	C		   D		G     Em  C  D 
Let me hold it close and keep it here with me. 
 
G		     Em			   C			  D 
And one day we will die and our ashes will fly from the aeroplane over the sea, 
G		   Em			    C 
But for now we are young let us lay in the sun, 
	  	D			G 
And count every beautiful thing we can see, 
	Em 	  C		    D		     G  Em  C  D 
Love to be in the arms of all I?m keeping here with me. 
 
 
Solo de trompete (G Em C D) 2x 
  
 
G		Em			   C 
What a curious sight we have found here tonight, 
	  	     D 
There is music that sounds from the street, 
G			  Em 
There are lights in the clouds, 
		  C 
Anna?s ghost all around 
			D			   G 
Hear her voice as it?s rolling and ringing through me, 
	  Em 
Soft and sweet 
	 C		    D		     G  Em  C  D 
How the notes all bend and reach above the trees. 
 
Em		    C 
Now how I remember you, 
	   	      		G				     D 
How I would push my fingers through your mouth to make those muscles move 
				     Em 
That made your voice so smooth and sweet, 
				C 
And now we keep where we don?t know 
			      G 
All secrets sleep in winter clothes 
			    D 
With one you loved so long ago now he don?t even know his name. 
 
Em  C  G  D 
 
G       	  Em			    C			  D	 
What a beautiful face I have found in this place that is circling all round the sun 
G		  Em			       C 
When we meet on a cloud I?ll be laughing out loud, 
			D	    G 
I?ll be laughing with everyone I see, 
	Em	     C	    	    D		   G  Em  C  D  G 
Can?t believe how strange it is to be anything at all. 
 
 
Solo de trompete 
 
e|--------------------------------------- 
B|--------------------------------------- 
G|-------------------9------------------- 
D|---12--10-9-----------12-9--------10--- 
A|-------------12-10----------10-12------ 
E|--------------------------------------- 
 
e|--------------------------------------- 
B|--------------------------------------- 
G|---------------------------9----------- 
D|-9-------------12-12-12-12---9-10-12--- 
A|---12-10-9----------------------------- 
E|-----------12--------------------------

Compartilhe esta música: novo

QR Code
Copiar