Camila, Camila (acústico)

Nenhum de Nós

Tom: D
Dedilhado-durante o D9 
E|---------0----------------------0--------------|  
B|-------3---3---3--------------3---3---3--------| 
G|-----2-------2--------------2-------2----------|  
D|-4-0-------------------4-0---------------------| 
A|-----------------------------------------------| 
E|-----------------------------------------------|
Didilhado até o refrão D9 Depois da última noite de festa Em7 G D9 Chorando e esperando amanhecer, amanhecer D9 As coisas aconteciam Em7 G D9 Com alguma explicação, com alguma explicação D9 Depois da última noite de chuva Em7 G D9 Chorando e esperando amanhecer, amanhecer Às vezes peço a ele Em7 G D9 Que vá embora, que vá embora, ooooo
C Bm Am Camila..., Camila..., Camila...
C E eu que tenho medo até de suas mãos Bm Mas o ódio cega e você não percebe Am C Mas o ódio cega......ah C E eu que tenho medo até do seu olhar Bm Mas o ódio cega e você não percebe Am C Mas o ódio cega..ah D9 A lembrança do silêncio Em7 G D9 Daquelas tardes, daquelas tar...des D9 Da vergonha do espelho Em7 G D9 Daquelas marcas, daquelas mar...cas D9 Havia algo de insano Em7 G D9 Naqueles olhos, olhos insanos, insaaaaanos D9 Os olhos que passavam o dia Em7 G D9 A me vigiar, a me vigiar, oooo REFRÃO C Bm Am Camila..., Camila..., Camila... C Eu que tinha apenas dezessete anos : Bm : Baixava minha cabeça pra tudo : 2 vezes Am : E era assim que as coisas aconteciam : D9 : E era assim que eu via tudo acontecer : REFRÃO - 2 vezes C Bm Am Camila..., Camila..., Camila... *Vocalização no final: (C Bm Am) Uuuuuu, uuuuuuu, uuuuuuuu, uuuoooooo, iiieeeee uooooooooo Termine com um 'C' bem distorcido e depois o solo final
   Solo Final 
E|---------------| 
B|---------------| 
G|---------------| 
D|-4-5-4-2-0-----| 
A|---------------| 
E|---------------|

Compartilhe esta música: novo

QR Code
Copiar