Naquela MesaCifra Verificada

Nelson Gonçalves

Tom: Dm
 Tablatura:  

* - Repita 6x 

{Parte 1 - 1/2} 

d|------------------------------------------------------------------------------------------- 
B|-1--0-----------0--1--0-----------0--1--0------------0--1--0---------------0--0--0--0-- 
G|-------2-----2-----------2-----2-----------2------2-------------------------------------- 
D|----------2-----------------2------------------2---------------0--1--2--3---------------- 


{Parte 1 - 2/2} 

d|---------------------------------------------------- 
B|-----0-3-1-0-------0-3-2-1-0-----0-3-2-1-0------- 
G|-2-------------------------------------------------- 
D|---------------3-0--------------3-------------2---- 

{Parte 2 - 1/3} 

d|--------------------------------------------------------------------- 
B|-1--0-----------0--1--0-----------0--1--0----------------------2/3- 
G|-------2-----2-----------2-----2-----------2------2--1-2-3-2------- 
D|----------2-----------------2------------------2--------------------- 

{Parte 2 - 2/3} 

d|-------------------------3-2----------------------------------- 
B|-3-3-3-3--1--0--3-1-0-----------0--1--3--1--0-------0-1-2--- 
G|-------------------------------2-----------------0--2---------- 
D|---------------------------------------------------------------- 


{Parte 2 - 3/3} 

d|-------------------------3-2----------------------------------- 
B|-3-3-3-3--1--0--3-1-0-----------0--1--3--1--0-------0-1----- 
G|-------------------------------2-----------------0--2------2--- 
D|---------------------------------------------------------------- 

{Parte 3 - 1/2} 

d|-10-9-7-----10-9-7----7--9--10--9--7------7--9--10--9----0----3-- 
B|----------5----------5-------------------5--------------------------- 
G|---------------------------------------------------------------------- 
D|------------------------------------------------------------0----3--- 

{Parte 3 - 2/2} 

d|----12-----10-----9-----2-- 
B|----------------------------- 
G|----------------------------- 
D|-12-----10-----9-----2------ 

{Parte 4 - 1/3} 

d|-------------------------3-2----------------------------------- 
B|-3-3-3-3--1--0--3-1-0-----------0--1--3--1--0-------0-1-2--- 
G|-------------------------------2-----------------0--2---------- 
D|---------------------------------------------------------------- 


{Parte 4 - 2/3} 

d|-------------------------3-2------------------------------------- 
B|-3-3-3-3--1--0--3-1-0-----------0--1--3--1--0-------0-1------- 
G|-------------------------------2-----------------0--2--------2*-- 
D|----------------------------------------------------------------- 

{Parte 4 - 3/3} 

d |---------5*---------3*----------2*--------5---------9-- 
B |-----3-----------1-----------3----------5---------8---- 
G |---4-----------2-----------1----------5--------5------- 
D |-5-----------3-----------2----------7--------7--------- 
Intro: Dm Gm Bb7 A7 Dm Naquela mesa ele sentava sempre D7 Gm E me dizia sempre o que é viver, melhor Naquela mesa ele contava histórias A7 Dm A7 Que hoje na memória, eu guardo e sei de cor Dm Naquela mesa ele juntava gente D7 Gm E contava contente o que fez de manhã Dm E nos seus olhos era tanto brilho A7 Dm A7 Que mais que seu filho, eu fiquei seu fã Dm Eu não sabia que doía tanto D7 Gm Uma mesa num canto, uma casa e um jardim Se eu soubesse o quanto dói a vida A7 Dm A7 Essa dor tão doída, não doia assim Dm Agora resta uma mesa na sala D7 Gm E hoje ninguém mais fala no seu bandolim Dm Naquela mesa tá faltando ele A7 Dm E a saudade dele, tá doendo em mim Gm Dm Naquela mesa tá faltando ele A7 Dm E a saudade dele tá doendo em mim Instrumental D7 Gm A7 Dm A7 Dm Agora resta uma mesa na sala D7 Gm E hoje ninguém mais fala no seu bandolim Dm Naquela mesa tá faltando ele A7 Dm E a saudade dele, tá doendo em mim Gm Dm Naquela mesa tá faltando ele A7 Dm A7 E a saudade dele tá doendo em mim Dm Eu não sabia que doía tanto D7 Gm Uma mesa num canto, uma casa e um jardim Se eu soubesse o quanto dói a vida A7 Dm A7 Essa dor tão doída, não doia assim Dm Agora resta uma mesa na sala D7 Gm E hoje ninguém mais fala no seu bandolim Dm Naquela mesa tá faltando ele A7 Dm E a saudade dele, tá doendo em mim Gm Dm Naquela mesa tá faltando ele A7 Dm E a saudade dele tá doendo em mim... Final Gm Dm A7 Dm Gm Bb7 A7 Dm

Compartilhe esta música: novo

QR Code
Copiar