Hey hey, my my

Neil Young

Tom: Am
intro: 
d----------------------3-33333- 
a-----2-3-5--2---------3-33333-       2x    
e-5-5----------5-3-5---1-11111-     
 
d-------------7----------------------------------------3-33333- 
a--------7-10---10-7---------7--------2-3-5--2---------3-33333- 
e-8-8-10-------------10-8-10------5-5----------5-3-5---1-11111-
verse: Am G F Hey hey, my my Am G F Rock and roll will never die C G6 There's more to the picture Am F Than meets the eye Am G F Hey hey, my my intro/verse Out of the blue and into the black You pay for this and they give you that Once you're gone, you can't come back When you're out of the blue And into the black intro/verse The king is gone but he's not forgotten Is the story of Johnny Rotten? It's better to burn out 'cause rust never sleeps The king is gone but he's not forgotten intro/verse Hey hey, my my Rock and roll will never die There's more to the picture Than meets the eye Hey hey, my my
d--------------------------7- 
a-----2-3-5--2-------------7-        
e-5-5----------5-3--1-2-3--5-
_______________________________________________________ Contribuição: Carlos Neujahr([email protected])

Compartilhe esta música: novo

QR Code
Copiar