Tentei Te Esquecer

Nechivile

Tom: E
Intro. 

(E,F#,G#,G# F#  E,F#,G#,E,F#) 

E|--------------------------------------------------------| 
B|------9/12-11--9----------------------------------------| 
G|------------------11--11/13---11--13--11--6--6/8--------| 
D|---9----------------------------------------------------| 
A|--------------------------------------------------------| 
e|--------------------------------------------------------| 

E|-----------------------------------------------------------------| 
B|------9/12-11--9-------------------------------------------------| 
G|----------------11--11/13---11--13--11--6--6/8---8/6--4--4/8--6--| 
D|---9-------------------------------------------------------------| 
A|-----------------------------------------------------------------| 
e|-----------------------------------------------------------------|
B E F# Ah! Como quero te encontrar novamente B E F# Estou sozinho procurando você B E F# Ah! Como quero te abraçar loucamente C# A9 F# B E F# Olhar dentro dos teus olhos e dizer 'não vivo sem você'
{Abafado} 
  E|-------------------------------| 
  B|-------------------------------| 
  G|----3/4--3--1------------------|                                                 
  D|--2------------4--2------------| 
  A|-------------------------------| 
  e|-------------------------------|
2ª Parte: B E F# O tempo passa cai à noite e o dia vem B E F# Tento fingir, mas não dá pra esconder... B E F# Ah! Eu sonhei nas noites vagas com teu amor G# F# Provei teu beijo magoei minha dor Refrão: B E F# E Tentei te esquecer... não deu B E F# E Pensei que fosse mais forte que esse amor B E F# E Ó minha paixão... sou teu B E F# E Por mais que eu queira disfarçar como estou G# F# E ==caída== F# B O meu coração se nega a aceitar, passa o tempo não esqueço de te amar. ==Introdução inteira... 2ªparte B E F# O tempo passa cai à noite e o dia vem B E F# Tento fingir, mas não dá pra esconder... B E F# Ah! Eu sonhei nas noites vagas com teu amor G# F# Provei teu beijo magoei minha dor Refrão... B E F# E Tentei te esquecer... não deu B E F# E Pensei que fosse mais forte que esse amor B E F# E Ó minha paixão... sou teu B E F# E Por mais que eu queira disfarçar como estou G# F# E ==caída== F# B F# O meu coração se nega a aceitar, passa o tempo não esqueço de te amar. Refrão d novo! Introdução inteira... detalhes: Caída {(E*755** na corda A) D#m C# na intro eh uma caída ( G# - F# ) eh uma caída ESSA MUSICA DEDICO A UMA PESSOA MUITO ESPECIAL: BRAMKINHA AINDA TE AMO.

Compartilhe esta música: novo

QR Code
Copiar