Sign

Naruto

Tom: D
Intro: D9  A/C#  Bm7  A4  G9  A4 Bm7(11) 

D  A  Bm  A  G A  Bm 
I realize the screaming pain 

Hearing loud in my brain 
But I'm going straight ahead, with the scar 

 
E|--------------------------------------------------------------------------------------------------------| 
B|--------------------------------------------------------------------------------------------------------| (2x) 
G|------------14---------------------14--------------------14---------------14-14--12-11------------------| 
D|---12-11-12------12-11-12-11-12-11-----12-11-12-11-12-11-----12-11-12-11---------------14---------------| 
A|--------------------------------------------------------------------------------------------------------| 
E|--------------------------------------------------------------------------------------------------------| 
 
E|--------------------------------------------------------------------------------------------------------| 
B|--------------------------------------------------------------------------------------------------------| 
G|------------14--------------------14---------------------14---------------------------------------------| 
D|---12-11-12-----12-11-12-11-12-11------12-11-12-11-12-11------12-11-12----------------------------------| 
A|--------------------------------------------------------------------------------------------------------| 
E|--------------------------------------------------------------------------------------------------------| 
(Can You Hear Me Can You Hear Me Can You Hear Me (So am |)). D Am Wasurete shimaeba ii yo kanji nakunacchaebaii G A Bm A Surimuita kokoro ni futa o shitanda D A Bm A Kizutsuitatte heikidayo mou itami wa nai kara ne G A Bm A Sono ashi o hikizuri nagara mo oh Pré-Refrão: G Miushinatta A Jibun jishin ga Bm Oto o tatete A Kuzureteitta
G D9 A Kizukeba kaze no oto dake ka D A Bm A Tsutaeni kitayo kizuato tadotte G D9 A Sekai ni oshi tsufu sarete shimau mae ni D A Bm A Oboeteru kara namida no sora o G A Bm A Ano itami ga kimi no koto o mamotte kureta G A Bm Sono itami ga itsumo kimi o mamotterunda
 
E|-----------5---------------------5------------------5----------------5-------------| 
B|------5--------5----5------5-------5----5----5------5----5----5-------8--7--5------| (2x) 
G|---7----7-------7------7-----7-------7----7----7------7----7-----------------------| 
D|-----------------------------------------------------------------------------------| 
A|-----------------------------------------------------------------------------------| 
E|-----------------------------------------------------------------------------------| 
(repete segunda parte) (solo não tem base de guitarra) (repete terceira parte) (Intro)

Compartilhe esta música: novo

QR Code
Copiar