Alive

Naruto

Tom: B5
B5      F#5      G#5       Em 
E|------------------------------------| 
B|------------------------------------| 
G|-----4------------------------------| 
D|---4---4------4--------6--------2---| 
A|-2----------4---4----6---6----2---2-| 
E|----------2--------4--------0-------| 
        B5      F#5    E  G#5     B5 
E|------------------------------------| 
B|------------------------------------| 
G|-----4--------------------------4---| 
D|---4---4------4---------------4---4-| 
A|-2----------4---4----2---4--2-------| 
E|----------2--------0---2------------| 
B5 F#5 G#5 E dare datte shippai wa suru nda B5 F#5 Em G#5 B5 hazukashii koto janai B5 F#5 G#5 E kono kizu o muda ni shinai de B5 F#5 E G#5 B5 waratte arukereba ii Base: ( B5 F#5 G#5 E ) ( B5 F#5 E G#5 B5 ) (2x) Solo:
E|------------------------7-7h9-7-9-9/11-9-7-7h9-7--------------------| 
B|--------------------7-9-------------------------9-7-9---------------| 
G|--6/8--6---6----6-8------------------------------------6-8--------6-|  (2x) 
D|---------9----9--------------------------------------------9----9---| 
A|--------------------------------------------------------------------| 
E|--------------------------------------------------------------------| 
( B5 F#5 G#5 Em ) ------> (Riff principal) ( B5 F#5 Em G#5 B5 ) sou shizuka na kuuki suikomi hiroki sora ni kao age tobikomi e|---7h9p7--| toki ni ame ga futtara hito yasumi jaa yukusaki wa kaze fuku mama ni takusan no matotteru koukai kono kizu o muda ni shicha shounai e|---7h9p7--| ude ni kunshou kizami ikoukai shougai sou kokkara ga Show Time ah iroasete kono PORA naka de ikiteru kako no jibun toka e|---7h9p7--| itsumo TSURU nde hi no nai you ni ibasho mitsukete hiataru you ni konna kanji de hibi kattou ippo fumidasu beki ganbou e|---7h9p7--| makkou shoubu jibun ni muke issou koko de kono uta hibikasou e|---9h11/7--| B5 F#5 G#5 Em dare datte shippai wa suru nda B5 F#5 Em G#5 B5 hazukashii koto janai B5 F#5 G#5 Em kono kizu o muda ni shinai de B5 F#5 Em G#5 B5 waratte arukereba ii (Riff 2)
        B5      F#5      G#5       Em 
E|------------------------------------| 
B|------------------------------------| 
G|-----4------------------------------| 
D|---4---4------4--------6--------2---| 
A|-2----------4---4----6---6----2---2-| 
E|----------2--------4--------0-------| 

        B5      F#5               B5 
E|------------------------------------| 
B|------------------------------------| 
G|-----4--------------------------4---| 
D|---4---4------4---------------4---4-|  
A|-2----------4---4----7--6-4-2-------| 
E|----------2-------------------------| 
( B5 F#5 G#5 E )---> (Riff Principal) ( B5 F#5 E G#5 B5 ) Kyou hajimari o tsugeru asayake yume to genjitsu no hazama de e|---7h9p7--| What's say kono koe kareru sono hi made Korogari tsudzukeru another day Shuppotsu shinkou kamase in o shindou kaitaku michi ippon yeah e|---7h9p7--| Yagate toori ni hanasake soshite mirai ni mugete habatake Genjitsu omoku nokkaru ga mezase chouten like a no culture e|---7h9p7--| Saru ga saru ni shikanarenai oh Jibun wa jibun ni shikanarenai yo Asu o ki ni shite shita muku mae ni Kyou no jibun no ki no muku mama ni e|---7h9p7--| Saisei kyou wa chou kaisei nanimo nayami nankanaize e|---9h11/7--| (G#5 F#5 G#5 F#5) G#5 F#5 Omoku no shikakaru genjitsu ga G#5 F#5 Ima no boku o semetateteru G#5 F#5 Kantan ni wa ikanai na E F#5 Sonna koto kurai chouchi shiteru yo B5 F#5 G#5 E dare datte shippai wa suru nda B5 F#5 E G#5 B5 hazukashii koto janai B5 F#5 G#5 E kono kizu o muda ni shinai de B5 F#5 E G#5 B5 waratte arukereba ii B5 F#5 G#5 B5 Takusan no koukai o matotte B5 F#5 E G#5 B5 Aji no aru hito ni naru sa B5 F#5 G#5 B5 Kanashimi mo kaze ni kaete B5 F#5 E G#5 B5 Tsuyoku susunde ikereba ii ( B5 F#5 G#5 E ) ( B5 F#5 E G#5 B5 ) (2x) (Solo) Sou shizuka na kuuki suikomi Hiroki sora ni kao age tobikomi Toki ni ame ga futtara hito yasumi Jaa yukusaki wa kaze fuku mama ni Takusan no matotteru koukai Sono kizu o muda ni shicha shounai Ude ni kunshou kizami ikoukai shougai Sou kokkara ga show time Assovio Final:
E|----------------4----------------------------------------| 
B|------4-------7---7-5-4---------4-7----4-4h5p4-----------| 
G|--4-6---4-6-------------6---4-6-----6----------6--4-4~~~~| 
D|---------------------------------------------------------|  
A|---------------------------------------------------------| 
E|---------------------------------------------------------|

Compartilhe esta música: novo

QR Code
Copiar