Por onde andeiCifra Verificada

Nando Reis

Tom: D
e-----------------------------------------------------------------|
B-----------------------------------------------------------------|
G--------0--------------------------------------------0-------0---|
D---0h2----2------2---------------0-------0---------3---3---------|
A-3-----------3-3-----3-3-2---0h2---2-------0-0-3-5-------5-5---5-|
E----------------------------3--------3-3-------------------------|

e-----------------------------------------------------------------|
B-----------------------------------------------------------------|
G--------------------0----------------------0---------------------|
D---------3-----------------3-----------0h2---2-----2-------------|
A-5-0-3-3---3-3---3-----3-3---3-3-0-3-----------3-3---3-3-2-------|
E-----------------------------------------------------------3-----|

e-----------------------------------------------------------------|
B-----------------------------------------------------------------|
G-------------------------0-----0-------0-----2-0-----------------|
D-----0-------0---------3---3-----3-------3---3-3-----------------|
A-0h2---2-------0-0-3-5-------5-----5------5--3-3-----------------|
E---------3-3-----------------------------------------------------|
C Desculpe estou um pouco atrasado G Mas espero que ainda de tempo Dm F De dizer que andei errado e eu entendo C As suas queixas tão justificáveis G E a falta que eu fiz nessa semana Dm F Coisas que pareceriam óbvias até pra uma criança C Por onde andei G Enquanto você me procurava Bb F Será que eu sei que você mesmo é tudo aquilo que me C G Dm F faltava? C Amor eu sinto a sua falta G E a falta é morte da esperança Dm F Como o dia em que roubaram o seu carro, deixou uma lembrança C Que a vida é mesmo coisa muito frágil G Uma bobagem uma irrelevância Dm F Diante da eternidade do amor, de quem se ama
C Por onde andei G Enquanto você me procurava Bb F E o que eu te dei, foi muito pouco ou quase nada C G E que eu deixei, algumas roupas penduradas Bb F Será que eu sei que você é mesmo tudo aquilo que me faltava?
C G Dm Ah Ah Ah Ah Ah Ah F Uh Uh Uh Uh C G Dm Ah Ah Ah Ah Ah Ah F Uh Uh Uh Uh C Amor eu sinto a sua falta G E a falta é morte da esperança Dm F Como o dia em que roubaram o seu carro, deixou uma lembrança C Que a vida é mesmo coisa muito frágil G Uma bobagem uma irrelevância Dm F Diante da eternidade do amor, de quem se ama
C Por onde andei G Enquanto você me procurava Bb F E o que eu te dei, foi muito pouco ou quase nada C G E que eu deixei, algumas roupas penduradas Bb F Será que eu sei que você é mesmo tudo aquilo que me faltava?
C G Dm Ah Ah Ah Ah Ah Ah F Uh Uh Uh Uh C G Dm Ah Ah Ah Ah Ah Ah F Uh Uh Uh Uh
C Por onde andei G Enquanto você me procurava Bb F E o que eu te dei, foi muito pouco ou quase nada C G E que eu deixei, algumas roupas penduradas Bb F Será que eu sei que você é mesmo tudo aquilo que me faltava?
C G Dm Ah Ah Ah Ah Ah Ah F Uh Uh Uh Uh C G Dm Ah Ah Ah Ah Ah Ah F Uh Uh Uh Uh

Compartilhe esta música: novo

QR Code
Copiar