Inferno

Nação Zumbi

Tom: D#
   {Riff1}:      {Riff2}: 
e|----------|---------------| 
B|----------|---------------| 
G|----------|---------------| 
D|--7--7..--|-------5-------| 
A|--7--7..--|--5-6-----6-5--| 
E|--5--5..--|---------------| 

Obs.1: Todas as notas com pestana. 
Obs.2: nas vezes em que for passar de D# para D e para C, tocar as referidas notas desta forma: 
      
    D#      D     C 
e|-----6--|-----5--|-----3--| 
B|-----8--|-----7--|-----5--| 
G|-----8--|-----7--|-----5--| 
D|-----8--|-----7--|-----5--| 
A|--6-----|--5-----|--3-----| 
E|--------|--------|--------|
Introdução: (primeiro o Riff1 mudo, depois isto) {Riff1} {Riff2} {Riff1} {Riff1} {Riff2} {Riff1} {Baixo} {Riff2} G|--5-- {Baixo} {Riff2} {Baixo} : D# : C : Am : O inferno...nem é tão longe Bem depois de onde nada se esconde Mais perto do que distante Não demora muito e ele chega pra qualquer um {Riff1} {Riff2} No coração das trevas estou e|--5-5 {Riff1} B|--5-5 E já não tenho mais direção {Riff1} {Riff2} Num labirinto sem cheiro e sem cor e|--7-5 {Riff1} B|--7-5 E o braseiro acendendo o chão {Riff1} {Riff2} No coração das trevas estou {Riff1} E já não tenho mais direção {Riff1} {Riff2} Num labirinto sem cheiro e sem cor e|--7b-7-5 {Riff1} B|--7b-7-5 E o braseiro acendendo o chão : Am : D# : C : Am : D# : D : C : O inferno nem é tão longe Bem depois de onde nada se esconde Mais perto do que distante Não demora muito e ele chega pra qualquer um {Riff1} {Riff2} No coração das trevas estou {Riff1} E já não tenho mais direção {Riff1} {Riff2} Num labirinto sem cheiro e sem cor e|--7-5 {Riff1} B|--7-5 E o braseiro acendendo o chão {Riff1} {Riff2} No coração das trevas estou {Riff1} E já não tenho mais direção {Riff1} {Riff2} Num labirinto sem cheiro e sem cor {Riff1} E o braseiro acendendo o chão
G|-----------------------------------0--2-—2-—2--0-----0--| 
D|--------------------2--2--2--0--2-----------------2-----| 
A|-----------------3--------------------------------------| 
E|--5--5--5--3--5-----------------------------------------| 

G|---------------------------------------------------------------| 
D|---------------------------------5/7--7--7--7--5--7--5------5--| 
A|----------------3/7--7--7--5--7--------------------------7-----| 
E|--5--5--5--3/5-------------------------------------------------| 

: Am : D# : C : Am : D# : D : C :  
O inferno nem é tão longe... eu sei 
Bem depois de onde nada se esconde 
Mais perto do que distante 
Não demora muito e ele chega pra qualquer um 

G|-----------------------------------0--2-—2-—2--0-----0--| 
D|--------------------2--2--2--0--2-----------------2-----| 
A|-----------------3--------------------------------------| 
E|--5--5--5--3--5-----------------------------------------| 

G|---------------------------------------------------------------| 
D|---------------------------------5/7--7--7--7--5--7--5------5--| 
A|----------------3/7--7--7--5--7--------------------------7-----| 
E|--5--5--5--3/5-------------------------------------------------|
O paraíso nunca vem de graça E quando chega, nem demora tanto um solinho loko, que quando alguém puder, por favor coloque aqui... e depois isto: : Am : D# : C : : Am : D# : C : : Am : e|--7b--5 : D# : C : B|--7b--5 : Am :

Compartilhe esta música: novo

QR Code
Copiar