Alma Matters

Morrissey

Tom: A
Intro: A C#m D F#m E D 

 D                     A 
So, the choice I have made 

      C#m       Cm        Bm 
E|-5-4-------4-3-------3-2------------------| 
B|-----5-2-------4-1------------------------| 
G|------------------------------------------| 
D|------------------------------------------| 
A|------------------------------------------| 
E|------------------------------------------| 

Bm D F#m may seem strange to you D A but who asked you anyway?
    C#m       Cm        Bm 
E|-5-4-------4-3-------3-2------------------| 
B|-----5-2-------4-1------------------------| 
G|------------------------------------------| 
D|------------------------------------------| 
A|------------------------------------------| 
E|------------------------------------------| 
Bm Its my life F#m E E7 to ruin my own way A C#m D You see to someone, somewhere oh yeah F#m Alma matters in mind E D body and soul in part and in hole (2x) D A So the life I have made
      C#m       Cm        Bm 
E|-5-4-------4-3-------3-2------------------| 
B|-----5-2-------4-1------------------------| 
G|------------------------------------------| 
D|------------------------------------------| 
A|------------------------------------------| 
E|------------------------------------------| 
Bm D F#m may seem wrong to you D A but I've never been sure
      C#m       Cm        Bm 
E|-5-4-------4-3-------3-2------------------| 
B|-----5-2-------4-1------------------------| 
G|------------------------------------------| 
D|------------------------------------------| 
A|------------------------------------------| 
E|------------------------------------------| 
Bm its my life F#m E E7 to wreck my own way A C#m D You see to someone, somewhere oh yeah F#m Alma matters in mind E D body and soul in part and in hole (2x) ( G Bm F#m ) ( G Bm F#m E E7 ) A C#m D You see to someone, somewhere oh yeah F#m Alma matters in mind E D body and soul in part and in hole (2x) A C#m D You see to someone, somewhere oh yeah F#m Alma matters in mind E D body and soul in part and in hole ( F Am Bb Bb Dm ) ( C Bb Gm E ) A C#m D To someone, somewhere oh yeah F#m E D oh yeah, oh yeah, oh yeah ( A C#m D F#m E D ) (2x)

Compartilhe esta música: novo

QR Code
Copiar