Tom: F
F         C        Dm      C     Bb9    F      C     C4  C 
Presença forte em mim, eu posso dizer  habitas aqui 
F          C       Dm    C       Bb9      F              C 
Porque escravo eu fui e hoje eu sou mais livre aos teus pés 

   Am      Bb9         C           F 
Sentido na vida a minh'alma encontrou 
    Am       Bb9         C       F 
Tua mão poderosa veio e me levantou 
 Am       Bb9   Am   Bb9 
Agora eu posso declarar 
     Dm  C   F 
Hoje livre sou 
                   Dm         Bb9   F 
Tenho sede da tua graça, cada dia  mais 
                          Dm             Bb9   C 
Sou mais forte e vou mais longe quando aqui estás 
       Dm        Gm      Am       Bb9 
Com palavras de amor te adoro, Senhor 
     Dm  C   F 
Hoje livre sou 

       F             Dm           Bb9    F 
Meu tesouro, minha herança, meu supremo Bem 
        F            Dm           Bb9  C 
Nem tribulações nem dor podem nos separar 
   Dm            Gm          Am      Bb9 
E jamais irão romper o que o amor selou 
     Dm  C   F 
Hoje livre sou 


 
  Solo: F  Dm  Bb9  F  Dm  Bb  C  Gm 
E|-----------------------------------------------15-17-18-17-15--13-13/17-17--| 
B|--8/10--10h11-10-8-6-6/13-13-13/15-17-18-17-15------------------------------| 
G|----------------------------------------------------------------------------| 
D|----------------------------------------------------------------------------| 
A|----------------------------------------------------------------------------| 
E|----------------------------------------------------------------------------| 

E|-18-17-15-13-13/20-20------------15-17-18-17-15-17-----| 
B|-----------------------15-17-18--------------------17--| 
G|-------------------------------------------------------| 
D|-------------------------------------------------------| 
A|-------------------------------------------------------| 
E|-------------------------------------------------------| 
Am Bb9 C F Sentido na vida a minh'alma encontrou Am Bb9 C F Tua mão poderosa veio e me levantou Am Bb9 Am Bb9 Agora eu posso declarar Dm C F Hoje livre sou Dm Bb9 F Tenho sede da tua graça, cada dia mais Dm Bb9 C Sou mais forte e vou mais longe quando aqui estás Dm Gm Am Bb9 Com palavras de amor te adoro, Senhor Dm C G Hoje livre sou G Em C9 G Meu tesouro, minha herança, meu supremo Bem G Em C D Nem tribulações nem dor podem nos separar Em Am G/B C E jamais irão romper o que o amor selou Em D G Hoje livre sou G Em C G Tenho sede da tua graça, cada dia mais G Em C Em - D Sou mais forte e vou mais longe quando aqui estás Em Am G/B C Com palavras de amor te adoro, Senhor Em D G Hoje livre sou G Em C G Meu tesouro, minha herança, meu Supremo Bem Em C D Nem tribulações nem dor podem nos separar Em Am G/B C E jamais irão romper o que o amor selou Em D F C Em D G Hoje livre sou

Compartilhe esta música: novo

QR Code
Copiar