Everything

Michael Bublé

Tom: D
Title     : Everything  
Artist    : Michael Buble  
Capo      : none  
Setting   : E-A-D-G-B-E  
Tabbed by : Bor de Wolf  
-------------------------------------------------   


Intro: D E7 Asus4                (3x)   
       D E7 Asus4 G6 A7sus4 D   
e|-------------------------------------------------------------------------|   
B|-------------------------------------------------------------------------|   
G|--11------11--9--7--7-----11-----11--9--7--7-----11-----11-9-7---11-9-7-7|   
D|7----7-6-------------6s7----7-6-------------6s7----7-6--------5----------|   
A|-------------------------------------------------------------------------|   
E|-------------------------------------------------------------------------|   

| /  slide up   
| \  slide down   
| h  hammer-on   
| p  pull-off   
| ~  vibrato   
| +  harmonic   
| x  Mute note 
D You're a falling star E7 You're the getaway car G Asus4 You're the line in the sand D When I go to far D You're the swimming pool E7 On an august day G A7sus4 D And you're the perfect thing to say D E7 And you play it coy but it's kinda cute G A7sus4 D Oh when you smile at me you know exactly what you do D E7 Baby don't pretend that you don't know it's true G A7sus4 D Cause you can see it when I look at you G A7sus4 D And in this cra-----------zy life G A7sus4 D And through these cra-----------zy times D7 It's you G It's you D/F# Bm Bm/A You make me sing E7 You're every line G You're every word D You're everything Same Chords as shown above You're a carousel You're a wishing well And you light me up When you ring my bell You're a mystery You're from outer space You're every minute of my every day And I can't believe that I'm your man And I get to kiss you baby just because I can Whatever comes our way We'll see it through And you know that's what our love can do And in this crazy life And through these crazy times It's you It's you You make me sing You're every line You're every word You're everything
e|---------------------------------------------------------------------------|   
B|---------------------------------------------------------------------------|   
G|--------------9/11p9-9p7---7--7-7h9-7--------77-66---------9/11p9-9p7------|   
D|--0-0-0-0---7------------9----7-7---7----00--------99-7-6-------------9----|   
A|----------9----------------------------------------------------------------|   
D|--------------------------------------0------------------------------------|   

e|---------------------------------------------------------------------------|   
B|--7--10-8-7----------------------------------------------------------------|   
G|--7--7--7-7--9p7-----------------------------------------------------------|   
D|-----------------9---------------------------------------------------------|   
A|---------------------------------------------------------------------------|   
E|---------------------------------------------------------------------------|   

| /  slide up   
| \  slide down   
| h  hammer-on   
| p  pull-off   
| ~  vibrato   
| +  harmonic   
| x  Mute note
And so la la la la... la la la So la la la la... la la la A B7sus4 E And in this cra-----------zy life A B7sus4 E And through these cra-----------zy times E7 It's you A It's you E/G# C#m C#m/B You make me sing F#7 You're every line A You're every word E You're everything F#7 You're every song A And I sing along E Cause you're my everything F#7 A Bsus4 E And so la la la la... la la la F#7 A Bsus4 E So la la la la... la la la

Compartilhe esta música: novo

QR Code
Copiar