Rogues

Methyl Ethel

Tom: F#
Intro 
   F#         G#         F# 
e|-14---------16---------14---------------------| 
B|---14---------16---------14-------------------| 
G|-----15---------17---------15---------5-6-5---| 
D|--------------------------------------------6-| 
A|----------------------------------------------| 
E|----------------------------------------------| 

e|----------------------4--4-------------------------| 
B|-------------4--6--7--------7--6--4--7--6----------| 
G|----3--5--6--------------------------------5-6-5---| 
D|-4-----------------------------------------------6-| 
A|---------------------------------------------------| 
E|---------------------------------------------------| 

e|----------------------4--6--4--------4-------------| 
B|-------------4--6--7-----------7--6-----7--6--4----| 
G|----3--5--6----------------------------------------| 
D|-4-------------------------------------------------| 
A|---------------------------------------------------| 
E|---------------------------------------------------| 
verse 1 F# G# Well i drunk myself asleep F# G# and i ablitera-ted my beliefs F# G# i was strunk down on the course way F# G# on the course way F# G# F# i was riding on the coaters of a stranger G# F# who was caught on the house arrest G# F# G# and his room became his tomb Pre-Chorus A#m he said I dont want to be a photo graph G# another photo graph in your album A#m G# i wanna be a photo graph in your door way, but its ok F# cause you dont know G# if youre gonna have a good time Chorus
      aliens,              aliens 
e|----------------------4--4-------------------------| 
B|-------------4--6--7--------7--6--4--7--6----------| 
G|----3--5--6--------------------------------5-6-5---| 
D|-4-----------------------------------------------6-| 
A|---------------------------------------------------| 
E|---------------------------------------------------| 

      aliens,        aliens 
e|----------------------4--6--4--------4-------------| 
B|-------------4--6--7-----------7--6-----7--6--4----| 
G|----3--5--6----------------------------------------| 
D|-4-------------------------------------------------| 
A|---------------------------------------------------| 
E|---------------------------------------------------| 
verse 2 F# G# i got abducted by the aliens F# G# they said do you plant a seed and ill watch you grow F# G# i saw squares in the windows F# G# became the squares Interlude
e|----------------------4--4-------------------------| 
B|-------------4--6--7--------7--6--4--7--6----------| 
G|----3--5--6--------------------------------5-6-5---| 
D|-4-----------------------------------------------6-| 
A|---------------------------------------------------| 
E|---------------------------------------------------| 

e|----------------------4--6--4--------4-------------| 
B|-------------4--6--7-----------7--6-----7--6--4----| 
G|----3--5--6----------------------------------------| 
D|-4-------------------------------------------------| 
A|---------------------------------------------------| 
E|---------------------------------------------------| 
Pre-Chorus A#m why dont you remember G# back in the summer time it was so hot A#m we wanted to escape together G# but we didnt know it didnt know know it F# G# in the summer when its 40 degrees outside F# G# and inside its 43, 43 F# G# Outro
e|----------------------4--4-------------------------| 
B|-------------4--6--7--------7--6--4--7--6----------| 
G|----3--5--6--------------------------------5-6-5---| 
D|-4-----------------------------------------------6-| 
A|---------------------------------------------------| 
E|---------------------------------------------------| 

e|----------------------4--6--4--------4-------------| 
B|-------------4--6--7-----------7--6-----7--6--4----| 
G|----3--5--6----------------------------------------| 
D|-4-------------------------------------------------| 
A|---------------------------------------------------| 
E|---------------------------------------------------| 

e|-----------------------------------------------------------------| 
B|-----------------4-4-4-4---------6-6-6-6-4-4-4-4-7-7-6-6-4-4-----| 
G|-6-6-6-6-5-5-5-5---------6-6-6-6-----------------------------6-6-| 
D|-----------------------------------------------------------------| 
A|-----------------------------------------------------------------| 
E|-----------------------------------------------------------------| 

e|-----------------------------------------------------------------| 
B|-----------------4-4-4-4---------6-6-6-6-4-4-4-4-7--6--4---------| 
G|-6-6-6-6-5-5-5-5---------6-6-6-6--------------------------5--6---| 
D|-----------------------------------------------------------------| 
A|-----------------------------------------------------------------| 
E|-----------------------------------------------------------------|

Compartilhe esta música: novo

QR Code
Copiar