Mount Hopeless

Melody's Echo Chamber

Tom: B
INTRO 

drum intro 

Bmaj7 F#sus2/B  (2x) 

Bbmaj7 Fsus2/Bb (2x) 


verse 1 
Bmaj7 F#sus2/B  Bmaj7     F#sus2/B Bbmaj7  Fsus2/Bb Bbmaj7 Fsus2/Bb 
I     hope that you don't stop to  use 

Bmaj7  F#sus2/B Bmaj7    F#sus2/B  Bbmaj7  Fsus2/Bb Bbmaj7 Fsus2/Bb 
   The fallen   sounds I found in  you  


Chorus 
Am           Bb             G#maj7               
As it goes I can't explain, why you feel so uncertain?              \ 
    Am               Bb                G#maj7                         x2 
And as it stands and fades away on the hopeful day it does the same /  
  

verse 2 
Bmaj7 F#sus2/B  Bmaj7    F#sus2/B Bbmaj7  Fsus2/Bb Bbmaj7 Fsus2/Bb 
I     dare to   find you never    choose 

Bmaj7 F#sus2/B  Bmaj7     F#sus2/B Bbmaj7  Fsus2/Bb Bbmaj7 Fsus2/Bb 
  But on the    calm I'll find my  blues 


- play Chorus -  
  

OUTRO/SOLO 

repeat the chords from the intro/verses, end on Bmaj7 


  Bmaj7 F#sus2/B  Bbmaj7 Fsus2/Bb  Am  Bb  G#maj7 
e|-11------9------10--------8------8---10--8----- 
B|-11------9------10--------8------10--11--8----- 
G|-11------11-----10--------10-----9---10--8----- 
D|-9-------9------8---------8------7---8---6----- 
A|----------------------------------------------- 
E|----------------------------------------------- 

                              or you can play these lower 

e|---------------------------------5---6---3----- 
B|---------------------------------5---6---4----- 
G|---------------------------------5---7---5----- 
D|---------------------------------7---8---6----- 
A|---------------------------------7---8---x----- 
E|---------------------------------5---6---4-----

Compartilhe esta música: novo

QR Code
Copiar