I Follow You

Melody's Echo Chamber

Tom: Dm
Dm7     Dm6      G6       G9        G6      G9       Am7 
E|-----------------|-----------------|-----------------|-----------------| 
B|-------6-------6-|-------5-------3-|-------5-------3-|-------1---------| 
G|-----5-------4---|-----4-------2---|-----4-------2---|-----0---------0-| 
D|---7-------7-----|---5-------3-----|---5-------5-----|---2-------2-3---| 
A|-----------------|-----------------|-----------------|-----------------| 
E|-----------------|-----------------|-----------------|-----------------| 
I was wrong and you were cold I was hoping you might go You never showed me how Much you cared or what was going on Dm G I follow you Em Am Pretend you want me to Dm G Living a test C Locked up with you Am I thought you trust me enough Dm G Then I do stupid things Em Am The things I always do Dm G This time with you C Our love is new
E|-----------------|-----------------|-----------------|-----------------| 
B|-------6-------6-|-------5-------3-|-------5-------3-|-------1---------| 
G|-----5-------4---|-----4-------2---|-----4-------2---|-----0---------0-| 
D|---7-------7-----|---5-------3-----|---5-------5-----|---2-------2-3---| 
A|-----------------|-----------------|-----------------|-----------------| 
E|-----------------|-----------------|-----------------|-----------------| 
It's been too long since you are gone I am thinking of you alone You never showed me how Much you're scared of what was going on Dm G I follow you Em Am Pretend you need me to Dm G Living a test C Not there with you Am I thought you trust me enough Dm G But I do stupid things Em Am The things I always do Dm G This time with you C Our love is new
E|-----------------|-----------------|-----------------|-----------------| 
B|-------6-------6-|-------5-------3-|-------5-------3-|-------1---------| 
G|-----5-------4---|-----4-------2---|-----4-------2---|-----0---------0-| 
D|---7-------7-----|---5-------3-----|---5-------5-----|---2-------2-3---| 
A|-----------------|-----------------|-----------------|-----------------| 
E|-----------------|-----------------|-----------------|-----------------| 
I need someone To be close forever My own demons Sneak under my pillow I'm so far that it comes and goes forever I need you here Stay and show me your love Solo Dm G Em Am Dm G C Am

Compartilhe esta música: novo

QR Code
Copiar