Be Proud Of Your Kids

Melody's Echo Chamber

Tom: E
Capotraste na 4ª casa

INTRO 

(no guitar) 

verse 1 
E6       F#   
Be proud of your kids of the light 
E6         F# 
Each star, every chance, every smile 
F#/b5      F# 
Show them love 


- play this riff (no.1) -  

e|-0---------------0-------------| 
B|---4-2-------------4-2---------| 
G|---------3-1-------------3-1---| 
D|-------4-----4-2-------4-----4-| 
A|-------------------------------| 
E|-------------------------------| 
verse 2 E6 F# Be proud of your kids in the light E6 F# Each day, everything you can give F#/b5 F# Show them love - riff no.1 (played by keys) - verse 3 E6 F# Be proud of your kids in the light E6 F# Each choice, everything you can give F#/b5 F# Show them love - play riff no.1 again - OUTRO E6 F# 2x (no guitar for 4 measures)
- play riff no.1 -  

e|---4-2-----4-2---0------------------------4-6---------4-6--------| 
B|-5-----2-5---------4-2----------------5-7---------5-7------------| 
G|-------------------------3-1------5-7---------5-7---------6------| 
D|-----------------------4-----4-2---------------------------------| 
A|-----------------------------------------------------------------| 
E|-----------------------------------------------------------------| 

e|-0---------------0-----------------4-2-----4-2---0---------------| 
B|---4-2-0-----------4-2-----------5-----2-5---------4-2-0---------| 
G|---------3-1-----------0-3-1-----------------------------3-1-----| 
D|-------------4-2-------------4-------------------------------4-2-| 
A|-----------------------------------------------------------------| 
E|-----------------------------------------------------------------| 
E6 F#

Compartilhe esta música: novo

QR Code
Copiar