Um Mundo Ideal

Melim

Tom: A
Intro: A 

E|-----7h9------9---------9---7-------------| 
B|---------10-----10---10-------------------| 
G|---9--------9------9------9---9-----------| 
D|-7----------------------------------------| 
A|------------------------------------------| 
E|------------------------------------------| 

E|-----7h9------9---------9---7-------------| 
B|---------10-----10---10-------------------| 
G|---9--------9------9------9---9-----------| 
D|-7----------------------------------------| 
A|------------------------------------------| 
E|------------------------------------------| 

Verso 1:

A A4 A Olha, eu vou lhe mostrar A4 F#m E Como é belo este mu__ndo Bm F#m E D A Já que nunca deixaram o seu coração mandar A4 A A4 F#m E Eu lhe ensino a ver todo encanto e bele___za Bm F#m E D A Que há na natureza num tapete a voar
E E/G# A Um mundo ideal E E/G# A É um privilégio ver daqui D A/C# D A/C# Ninguém pra nos dizer o que fazer F#m E D Até parece um sonho E/D E E/G# A Um mundo ideal E F#m Um mundo que eu nunca vi A D A/C# D A/C# E agora eu posso ver e lhe dizer F#m E A Que estou num mundo novo com você A4
Eu num mundo novo com você

Verso 2:

C C4 C Com uma incrível visão C4 Am G Neste voo tão li_ndo Dm E Am G Vou planando e subindo F C Pelo imenso azul do céu
G G/B C Um mundo ideal (feito só pra você) G G#º Am Nunca senti tanta emoção (pois então aproveite) C F C/E Mas como é bom voar F C/E Viver no ar Am G F G Eu nunca mais vou desejar voltar (um mundo ideal) G/B C Com tão lindas surpresas G G#º Am Com novos rumos pra seguir (tanta coisa empolgante) C F C/E Aqui é bom viver F C/E Só tem prazer Am G F G Am Am/G Com você não saio mais daqui

Verso 3:

F Um mundo ideal C/E Um mundo ideal Dm7 Que alguém nos deu C/E Que alguém nos deu F Feito pra nós G4(7/9) Somente nós C Só seu e meu

Compartilhe esta música: novo

QR Code
Copiar