Era Pra Ser Outra Canção Feliz

Melim

Tom: A
Intro 

E|-----------------------| 
B|-----------------------| 
G|--5/6-7--9-6-----------| 
D|-------------7-9---7---| 
A|-----------------9-----| 
E|-----------------------| 

Bm         A 
   Oooooooo 

E|-----------------------| 
B|-----------------------| 
G|--5/6-7--9-6-----------| 
D|-------------7-9---7---| 
A|-----------------9-----| 
E|-----------------------| 
Bm Era pra ser outra canção feliz C#m Mas dessa vez eu resolvi mudar Bm É justamente nos dias ruins C#m F#m Que a vida ensina a gente a melhorar Bm Não adianta substituir C#m F#m Pois cada peça tem o seu lugar Bm Acreditar no amor C#m É ter certeza que a dor vai passar D Sem teu amor eu vivo na pobreza C#m Sem teu carinho tudo é incerteza Bm E você avisou F#m Cristal quebrou, perdeu valor Dm Depois meteu o pé e nem olhou pra trás A Bm E foi-se embora como se não fosse voltar A Nem deu ideia Paguei pra ver, joguei xadrez Bm A Perdi minha rainha achando que eu era rei Bm E foi-se embora como se não fosse voltar A Nem deu ideia Agora eu sei o quanto errei Bm E Bm Perdi minha rainha achando que eu era rei
E|-----------------------| 
B|-----------------------| 
G|--5/6-7--9-6-----------| 
D|-------------7-9---7---| 
A|-----------------9-----| 
E|-----------------------| 
      A 
Oooooooo 

E|-----------------------| 
B|-----------------------| 
G|--5/6-7--9-6-----------| 
D|-------------7-9---7---| 
A|-----------------9-----| 
E|-----------------------| 
D Sem teu amor eu vivo na pobreza C#m Sem teu carinho tudo é incerteza Bm E você avisou F#m Cristal quebrou, perdeu valor Dm Depois meteu o pé e nem olhou pra trás A Bm E foi-se embora como se não fosse voltar A Nem deu ideia Paguei pra ver, joguei xadrez Bm A Perdi minha rainha achando que eu era rei Bm E foi-se embora como se não fosse voltar A Nem deu ideia Agora eu sei o quanto errei Bm E F Perdi minha rainha achando que eu era rei G F Sem conseguir dormir à noite A F O rei virou bobo da corte G De tanto te fazer sofrer agora Dm G Bm Minha guitarra chora
E|-----------------------| 
B|-----------------------| 
G|--5/6-7--9-6-----------| 
D|-------------7-9---7---| 
A|-----------------9-----| 
E|-----------------------| 
        A 
Oooooooo 

E|-----------------------| 
B|-----------------------| 
G|--5/6-7--9-6-----------| 
D|-------------7-9---7---| 
A|-----------------9-----| 
E|-----------------------| 
Bm Uauauauauauauaua Bm F#m Era pra ser outra canção feliz
E|------------------------------------| 
B|--14p12----14-12----12--14p12-------| 
G|--------14-------14------------14~~-| 
D|------------------------------------| 
A|------------------------------------| 
E|------------------------------------| 

Compartilhe esta música: novo

QR Code
Copiar