Rückspiegel

Maxim

Tom: Dm
   Dm              Am              C               G 
e|------------------------------------------------------------------| 
b|-3----3--3----3-01----1--1----1-01----1--1----1-03----3--3----1-0-| 
g|----2---2---2-------2---2---2-------0---0---0-------4---4---4-----| 
d|-0-0-0-0-0-0-0-0---2-2-2---2-2-2---2-2-2---2-2-2---0-0-0---0-0-0--| 
a|-----------------0-------0-------3-------3------------------------| 
E|-------------------------------------------------3-------3--------| 

   Dm              F               Am              G 
e|------------------------------------------------------------------| 
b|-3----3--3----3-01----1--1----1-01----1--1----1-03----3--3----1-0-| 
g|----2---2---2-------2---2---2-------2---2---2-------4---4---4-----| 
d|-0-0-0-0-0-0-0-0-3-3-3-3-3-3-3-3---2-2-2---2-2-2---0-0-0---0-0-0--| 
a|---------------------------------0-------0------------------------| 
E|-------------------------------------------------3-------3--------| 
Intro: Dm F Am G (2x) verse 1 Dm Am C G es ist Sommer so leicht sich zu erinnern hier unten am Fluss Dm Am wenn das Wasser die Scherben stumpf geschliffen hat C G und nichts mehr schneidet in deiner Brust Dm Am und ja du vergisst die Mückenstiche wenn du an den Sommer denkst C G Dm träumst die Falten aus der Stirn aber dir wird sofort schlecht Am C G und du versuchst dir vorzustellen was wohl eines Tages aus dir wird Dm Am C
G und das Glück steht vor Dir an der Straße und hält den Daumen raus Dm Am aber alles geht so schnell dass es dir immer erst auffällt C G wenn du in den Rückspiegel schaust Dm F und dann ist es längst zu spät um anzuhalten Am G dann musst du weiter gradeaus Dm F bis das Glück wieder an dir vorbeirauscht Am G weil du ständig in den Rückspiegel schaust
Dm F Am G 2x verse 2 Dm Am C G wie oft musst du alles auf den Kopf stell'n bis du endlich siehst Dm Am dass der Schlüssel den du so verzweifelt suchst C G die ganze Zeit direkt vor deiner Nase liegt Dm Am du krabbelst mit 'ner Augenbinde und 'nem Löffel durch die Welt C G und du bist immer lauwarm dran Dm Am C G morgen früh fängt diese ganze traurige Komödie wieder von vorne an Dm Am C
G und das Glück steht vor Dir an der Straße und hält den Daumen raus Dm Am aber alles geht so schnell dass es dir immer erst auffällt C G wenn du in den Rückspiegel schaust Dm F und dann ist es längst zu spät um anzuhalten Am G dann musst du weiter gradeaus Dm F bis das Glück wieder an dir vorbeirauscht Am G weil du ständig in den Rückspiegel schaust
Bridge Dm Am aber vielleicht macht es doch irgendwann klick C G und dann ist plötzlich alles da Dm Am C G und für einen kurzen Augenblick siehst du alles ganz deutlich und klar Dm Am C
G und das Glück steht vor dir an der Straße und hält den Daumen raus Dm Am und du hältst an und es steigt ein und alles ist okay C G wenn du in den Rückspiegel schaust

Compartilhe esta música: novo

QR Code
Copiar