Romeo Weint

Matthias Reim

Tom: Am
Intro: 
  Am                          x4 
e|------------|---------------||-----| 
B|----------3-|----1----------||-----| 
G|-2-2----2---|--2-----2-0-2-.||-2-2-| 
D|-2-2--2-----|--------------.||-2-2-| 
A|-0-0--------|---------------||-0-0-| 
E|------------|---------------||-----| 
verse 1: C Romeo steht am Rand der Nacht Am wo bist du Julia C Vielleicht bist du auch noch wach Dm den alten Träumen nah F oder bist du jetzt bei ihm Dm schläfst in seinen Armen ein G Lässt du Romeo jetzt allein
C Du weißt Romeo weint Am weil er nur von dir träumt F Du weißt sein Herz zerbricht E warum rettest du ihn nicht Am Du weißt Romeo stirbt F wenn er dich jetzt verliert E Du weißt Romeo geht G wenn der morgen kommt ist es zu spät Am Romeo weint
                            x4 
e|------------|---------------||-----| 
B|----------3-|----1----------||-----| 
G|-2-2----2---|--2-----2-0-2-.||-2-2-| 
D|-2-2--2-----|--------------.||-2-2-| 
A|-0-0--------|---------------||-0-0-| 
E|------------|---------------||-----| 
verse 2: C Romeos Engel haben frei Am der letzte Vorhang fällt C und er weiß wenn er erwacht Dm ist es nicht in dieser Welt F Die Bühne ist jetzt leer Dm das Happy End fällt aus G Romeo du must hier raus
C Du weißt Romeo weint Am weil er nur von dir träumt F Du weißt sein Herz zerbricht E warum rettest du ihn nicht Am Du weißt Romeo stirbt F wenn er dich jetzt verliert E Du weißt Romeo geht G wenn der morgen kommt ist es zu spät C Am F E Romeo weint Am Du weißt Romeo stirbt F wenn er dich jetzt verliert E Du weißt Romeo geht G wenn der morgen kommt ist es zu spät Am Romeo weint
                           x2 
e|------------|---------------||-----| 
B|----------3-|----1----------||-----| 
G|-2-2----2---|--2-----2-0-2-.||-2-2-| 
D|-2-2--2-----|--------------.||-2-2-| 
A|-0-0--------|---------------||-0-0-| 
E|------------|---------------||-----|

Compartilhe esta música: novo

QR Code
Copiar