Astair

Matt Costa

Tom: C
Capotraste na 4ª casa
Matt Costa  
Astair  
   

Tabbed by georgstraetz   

  

e---------------------------------------------------------------------e  
B---------------------------------------------------------------------B  
G---------------------------------------------------------------------G  
D-----2-2-2-2---2-2-2-2---2-2-2-2---2-2-2-2----3-3-3-3----0-0---0--0--D  
A----3-3-3-3---2-2-2-2---0-0-0-0---------------------------0--2-------A  
E----------------------------------3-3-3-3----1-1-1-1----3--------3---E 
C Em7 Am Am/G Astair your glare is killing me F F G G Astair the skies of blue C Em7 Am Am/G The signs you wear are making me F F G G So confused C Em7 Am Am/G But the mountains and the trees are they just what you need or are they F F G G less than what you'd expect to see? C Em7 Am Am/G F F And if you're leaving well come give me reason why I let you down G G C G F F Before you turn around now now *G G C Em7 Am Am/G F F G G Before you turn around C Em7 Am Am/G Astair you're there and I'm still here F F G G I swear I'm so confused C Em7 Am Am/G The signs you wear are making me F F G G Feel like I'm the one to lose C Em7 Am Am/G But the canyons and the seas are they just what you need or are they F F G G Less than what you'd expect to see? C Em7 And if you're leavin well come Am Am/G F give me reason why I let you down G G C G F F Before you turn around now now G G C G F F Before you turn around now now *G G C Em7 Am Am/G F F G G C G F F C G F F G G Before you turn around C Em7 Am Am/G But the mountains and the trees are they what you perceive or are they F F G G less than what you'd expect to see? C Em7 Am Am/G F F And if you're leaving well come give me reason why I let you down G G C C G F F Before you turn around now now *G G C Em7 Am Am/G F F Before you turn around G G C let Ring Before you turn around
  

Standard tuning  

Start  
E||----------------------|----------------------|----------------------|  
B||----------------------|----------------------|----------------------|  
G||----------------------|----------------------|----------------------|  
D||-------2---------2----|-------2---------2----|-------2---------2----|  
A||--3---------3---------|--3---------3---------|--2---------2---------|  
E||----------------------|----------------------|----------------------|  

   

----------------------|----------------------|----------------------|  
----------------------|----------------------|----------------------|  
----------------------|----------------------|----------------------|  
-------2---------2----|-------2---------2----|-------2---------2----|  
--2---------2---------|--0---------0---------|--0---------0---------|  
----------------------|----------------------|----------------------|  

   

----------------------|----------------------|----------------------|  
----------------------|----------------------|----------------------|  
----------------------|----------------------|----------------------|  
-------2---------2----|-------2---------2----|-------3---------3----|  
----------------------|----------------------|----------------------|  
--3---------3---------|--3---------3---------|--1---------1---------|  

   

----------------------|----------------------|----------------------xx  
----------------------|----------------------|----------------------xx  
----------------------|----------------------|----------------------xx  
-------3---------3----|-------0---------0----|-------0---------0----xx  
----------------------|------------0---------|--2-------------------xx  
--1---------1---------|--3-------------------|------------3---------xx  

   
   Astair                      your glare             is killing me  
------------------------|------------------------|------------------------|  
---1-------------1------|--3-------------3-------|--1-------------1-------|  
----------0-------------|----------0-------------|----------0-------------|  
-------2-----------2----|-------0-----------0----|-------2-----------2----|  
---3----------3---------|--2----------2----------|--0----------0----------|  
------------------------|------------------------|------------------------|  

   
                                 Astair in            skies of    blue  
------------------------|------------------------|------------------------|  
--1-------------1-------|--1-------------1-------|--1-------------1-------|  
----------0-------------|----------2-------------|----------2-------------|  
-------2-----------2----|-------3-----------3----|-------3-----------3----|  
------------------------|------------------------|------------------------|  
--3----------3----------|--1----------1----------|--1----------1----------|  


                                                     The signs                    
------------------------|------------------------xx------------------------|  
--0-------------0-------|-----0------------------xx--1-------------1-------|  
----------0-----------0-|-----------0------------xx----------0-------------|  
-------0-----------0----|--------0---------------xx-------2-----------2----|  
-------------0----------|--2---------------------xx--3----------3----------|  
--3---------------------|--------------3---------xx------------------------|  

   
     you wear                 are making me  
------------------------|------------------------|------------------------|  
--3-------------3-------|--1-------------1-------|--1-------------1-------|  
----------0-------------|----------0-------------|----------0-------------|  
-------0-----------0----|-------2-----------2----|-------2-----------2----|  
--2----------2----------|--0----------0----------|------------------------|  
------------------------|------------------------|--3----------3----------|  

   
                    So confused  
------------------------|------------------------|------------------------|  
--1-------------1-------|--1--------------1------|--0----------0----------|  
----------2-------------|-----------2------------|-------0-----------0----|  
-------3-----------3----|--------3-----------3---|-----0----------0-------|  
------------------------|------------------------|----------0-------------|  
--1-----------1---------|--1-----------1---------|--3---------------------|  

   
                     But        the mountains and the trees          Are they   
------------------------xx------------------------|------------------------|  
----0-------------------xx--1-------------1-------|--3-------------3-------|  
----------0-------------xx----------0-------------|----------0-------------|  
-------0----------------xx-------2------------2---|-------0-----------0----|  
--2---------------------xx--3----------3----------|--2---------2-----------|  
-------------3----------xx------------------------|------------------------|  

   
just what you need   Or are they less than what    
------------------------|------------------------|------------------------|  
--1-------------1-------|--1---------------1-----|--1-------------1-------|  
----------0-------------|----------0-------------|----------2-------------|  
-------2-----------2----|-------2--------------2-|-------3-----------3----|  
--0---------0-----------|------------------------|------------------------|  
------------------------|--3----------3----------|--1---------1-----------|  

   
                                    You'd expect to see  
------------------------|------------------------|------------------------xx  
--1--------------1------|---0-----------0--------|----0-------------------xx  
-----------2------------|---------0-----------0--|----------0-------------xx  
--------3-----------3---|------0-----------0-----|-------0----------------xx  
------------------------|------------0-----------|--2---------------------xx  
--1-----------1---------|---3--------------------|--------------3---------xx   


     And if you're leaving            well come  Give me reason   
------------------------|------------------------|------------------------|  
--1---------------1-----|--3---------------3-----|--1----------------1----|  
----------0-------------|----------0-------------|----------0-------------|  
-------2-------------2--|-------0-------------0--|--------2------------2--|  
--3----------3----------|--2---------2-----------|--0-----------0---------|  
------------------------|------------------------|------------------------|  


why I let you down  
------------------------|------------------------|------------------------|  
--1---------------1-----|--1-----------1---------|--1-------------1-------|  
----------0-------------|--------2---------------|---------2--------------|  
-------2-------------2--|-----3------------3-----|------3------------3----|  
------------------------|------------------------|------------------------|  
--3-----------3---------|--1--------1------------|--1---------1-----------|   


          Before you turn                             around   
------------------------|------------------------xx------------------------|  
--0-----------0---------|-----0------------------xx--1------------1--------|  
--------0-----------0---|-----------0------------xx--------0---------------|  
-----0-----------0------|--------0---------------xx-----2-------------2----|  
-----------0------------|--2---------------------xx--0---------0-----------|  
--3---------------------|--------------3---------xx------------------------|   


        now                        now  
------------------------|------------------------|------------------------|  
--1-----------1---------|--1-----------1---------|--1-----------1---------|  
--------0---------------|--------2---------------|--------2---------------|  
-----2------------2-----|-----3-----------3------|-----3-------------3----|  
------------------------|------------------------|------------------------|  
--3--------3------------|--1--------1------------|--1--------1------------|   


              Before you turn around  
------------------------|------------------------xx----------------0-------|  
--0-------------0-------|-----0------------------xx--1-------------1-------|  
----------0-----------0-|-----------0------------xx----------0-------------|  
-------0-----------0----|--------0---------------xx-------2----------------|  
-------------0----------|--2---------------------xx--3----------3----------|  
--3---------------------|--------------3---------xx------------------------|  



----------------0-------|----------------0-------|----------------0-------|  
--3-------------3-------|--1-------------1-------|--1-------------1-------|  
----------0-------------|----------0-------------|----------0-------------|  
-------0----------------|-------2----------------|-------2----------------|  
--2----------2----------|--0----------0----------|------------------------|  
------------------------|------------------------|--3----------3----------|   



----------------1-------|-----------------1------|------------------------|  
--1-------------1-------|--1--------------1------|--0----------0----------|  
----------2-------------|-----------2------------|-------0-----------0----|  
-------3----------------|--------3---------------|-----0----------0-------|  
------------------------|------------------------|----------0-------------|  
--1-----------1---------|--1-----------1---------|--3---------------------|   



------------------------xx  
-----0------------------xx  
-----------0------------xx  
--------0---------------xx   
--2---------------------xx  
--------------3---------xx   


     Astair                  you're there           and I'm still here        
------------------------|------------------------|------------------------|  
---1-------------1------|--3-------------3-------|--1-------------1-------|  
----------0-------------|----------0-------------|----------0-------------|  
-------2-----------2----|-------0-----------0----|-------2-----------2----|  
---3----------3---------|--2----------2----------|--0----------0----------|  
------------------------|------------------------|------------------------|  

   
                                  I swear I'm so confused  
------------------------|------------------------|------------------------|  
--1-------------1-------|--1-------------1-------|--1-------------1-------|  
----------0-------------|----------2-------------|----------2-------------|  
-------2-----------2----|-------3-----------3----|-------3-----------3----|  
------------------------|------------------------|------------------------|  
--3----------3----------|--1----------1----------|--1----------1----------|  


                                                     The signs   
------------------------|------------------------xx------------------------|  
--0-------------0-------|-----0------------------xx--1-------------1-------|  
----------0-----------0-|-----------0------------xx----------0-------------|  
-------0-----------0----|--------0---------------xx-------2-----------2----|  
-------------0----------|--2---------------------xx--3----------3----------|  
--3---------------------|--------------3---------xx------------------------|  

   
  you wear                      are making me   
------------------------|------------------------|------------------------|  
--3-------------3-------|--1-------------1-------|--1-------------1-------|  
----------0-------------|----------0-------------|----------0-------------|  
-------0-----------0----|-------2-----------2----|-------2-----------2----|  
--2----------2----------|--0----------0----------|------------------------|  
------------------------|------------------------|--3----------3----------|  

   
        Feel like I'm the one to lose  
------------------------|------------------------|------------------------|  
--1-------------1-------|--1--------------1------|--0----------0----------|  
----------2-------------|-----------2------------|-------0-----------0----|  
-------3-----------3----|--------3-----------3---|-----0----------0-------|  
------------------------|------------------------|----------0-------------|  
--1-----------1---------|--1-----------1---------|--3---------------------|  

   
                                     But the canyons and the seas   
------------------------xx------------------------|------------------------|  
----0-------------------xx--1-------------1-------|--3-------------3-------|  
----------0-------------xx----------0-------------|----------0-------------|  
-------0----------------xx-------2-----------2----|-------0-----------0----|  
--2---------------------xx--3----------3----------|--2---------2-----------|  
-------------3----------xx------------------------|------------------------|  

   
Are they just what you need Or are they less than what   
------------------------|------------------------|------------------------|  
--1-------------1-------|--1---------------1-----|--1-------------1-------|  
----------0-------------|----------0-------------|----------2-------------|  
-------2-----------2----|-------2-------------2--|-------3-----------3----|  
--0---------0-----------|------------------------|------------------------|  
------------------------|--3----------3----------|--1---------1-----------|  

   
                                     You'd expect to see  
------------------------|------------------------|------------------------xx  
--1--------------1------|---0-----------0--------|----0-------------------xx  
-----------2------------|---------0-----------0--|----------0-------------xx  
--------3-----------3---|------0-----------0-----|-------0----------------xx  
------------------------|------------0-----------|--2---------------------xx  
--1-----------1---------|---3--------------------|--------------3---------xx   


And if you're leaving well come Give me reason   

------------------------|------------------------|------------------------|  
--1-------------1-------|--3--------------3------|--1---------------1-----|  
----------0-------------|----------0-------------|----------0-------------|  
-------2------------2---|-------0------------0---|--------2------------2--|  
--3----------3----------|--2---------2-----------|--0-----------0---------|  
------------------------|------------------------|------------------------|  


why I let you down   
------------------------|------------------------|------------------------|  
--1---------------1-----|--1-----------1---------|--1-------------1-------|  
----------0-------------|--------2---------------|---------2--------------|  
-------2-------------2--|-----3------------3-----|------3------------3----|  
------------------------|------------------------|------------------------|  
--3-----------3---------|--1--------1------------|--1---------1-----------|   


             Before you turn                           around                
------------------------|------------------------xx------------------------|  
--0-----------0---------|-----0------------------xx--1------------1--------|  
--------0-----------0---|-----------0------------xx--------0---------------|  
-----0-----------0------|--------0---------------xx-----2------------2-----|  
-----------0------------|--2---------------------xx--0--------0------------|  
--3---------------------|--------------3---------xx------------------------|   


        now                        now  
------------------------|------------------------|------------------------|  
--1-----------1---------|--1-----------1---------|--1-----------1---------|  
--------0---------------|--------2---------------|--------2---------------|  
-----2------------2-----|-----3------------3-----|-----3-----------3------|  
------------------------|------------------------|------------------------|  
--3--------3------------|--1--------1------------|--1--------1------------|   


                 Before you turn                       around   
------------------------|------------------------xx------------------------|  
--0-----------0---------|-----0------------------xx--1------------1--------|  
--------0-----------0---|-----------0------------xx--------0---------------|  
-----0-----------0------|--------0---------------xx-----2------------2-----|  
-----------0------------|--2---------------------xx--0--------0------------|  
--3---------------------|--------------3---------xx------------------------|   


            now                now  
------------------------|------------------------|------------------------|  
--1-----------1---------|--1-----------1---------|--1-----------1---------|  
--------0---------------|--------2---------------|--------2---------------|  
-----2------------2-----|-----3------------3-----|-----3-----------3------|  
------------------------|------------------------|------------------------|  
--3--------3------------|--1--------1------------|--1--------1------------|   


           Before you turn around  
------------------------|------------------------xx---------------0--------|  
--0-----------0---------|-----0------------------xx--1------------1--------|  
--------0-----------0---|-----------0------------xx--------0---------------|  
-----0-----------0------|--------0---------------xx-----2------------------|  
-----------0------------|--2---------------------xx--3--------3------------|  
--3---------------------|--------------3---------xx------------------------|    



----------------0-------|----------------0-------|----------------0-------|  
--3-------------3-------|--1-------------1-------|--1-------------1-------|  
----------0-------------|----------0-------------|----------0-------------|  
-------0----------------|-------2----------------|-------2----------------|  
--2----------2----------|--0----------0----------|------------------------|  
------------------------|------------------------|--3----------3----------|   



----------------1-------|-----------------1------|------------------------|  
--1-------------1-------|--1--------------1------|--0----------0----------|  
----------2-------------|-----------2------------|-------0-----------0----|  
-------3----------------|--------3---------------|-----0----------0-------|  
------------------------|------------------------|----------0-------------|  
--1-----------1---------|--1-----------1---------|--3---------------------|   



------------------------xx---------------0--------|  
-----0------------------xx--1------------1--------|  
-----------0------------xx--------0---------------|  
--------0---------------xx-----2------------------|  
--2---------------------xx--0--------0------------|  
--------------3---------xx------------------------|  



--------------0---------|--------------1---------|--------------1---------|  
--1-----------1---------|--1-----------1---------|--1-----------1---------|  
--------0---------------|--------2---------------|--------2---------------|                 
-----2------------------|-----3------------------|-----3------------------|                              
------------------------|------------------------|------------------------|  
--3--------3------------|--1--------1------------|--1--------1------------|   



--------------0---------|--------------0---------|--------------1---------|  
--1-----------1---------|--1-----------1---------|--1-----------1---------|  
--------0---------------|--------0---------------|--------2---------------|  
-----2------------------|-----2------------------|-----3------------------|  
--0--------0------------|------------------------|------------------------|  
------------------------|--3--------3------------|--1--------1------------|    



-----------------1------|------------------------|------------------------xx  
--1--------------1------|---0-----------0--------|----0-------------------xx  
-----------2------------|---------0-----------0--|----------0-------------xx  
--------3---------------|------0-----------0-----|-------0----------------xx  
------------------------|------------0-----------|--2---------------------xx  
--1-----------1---------|---3--------------------|--------------3---------xx    

   
   But the mountains and the trees   
----------------0-------|----------------0-------|  
--1-------------1-------|--3-------------3-------|  
----------0-------------|----------0-------------|  
-------2----------------|-------0----------------|  
--3----------3----------|--2---------2-----------|  
------------------------|------------------------|  

   
Are they what you perceive     Or are they less than what   
----------------0-------|------------------0-----|------------------------|  
--1-------------1-------|--1---------------1-----|--1-------------1-------|  
----------0-------------|----------0-------------|----------2-------------|  
-------2----------------|-------2----------------|-------3-----------3----|  
--0---------0-----------|------------------------|------------------------|  
------------------------|--3----------3----------|--1---------1-----------|  

   
                                       You'd expect to see  
------------------------|------------------------|------------------------xx  
--1--------------1------|---0-----------0--------|----0-------------------xx  
-----------2------------|---------0-----------0--|----------0-------------xx  
--------3-----------3---|------0-----------0-----|-------0----------------xx  
------------------------|------------0-----------|--2---------------------xx  
--1-----------1---------|---3--------------------|--------------3---------xx   


And if you're leaving         well come              Give me reason    
----------------0-------|----------------0-------|-------------------0----|  
--1-------------1-------|--3-------------3-------|--1----------------1----|  
----------0-------------|----------0-------------|----------0-------------|  
-------2----------------|-------0----------------|------2-----------------|  
--3----------3----------|--2---------2-----------|--0-----------0---------|  
------------------------|------------------------|  
------------------------|  


   why I let you down  
------------------0-----|------------------------|------------------------|  
--1---------------1-----|--1-----------1---------|--1-------------1-------|  
----------0-------------|--------2---------------|---------2--------------|  
-------2----------------|-----3------------3-----|------3------------3----|  
------------------------|------------------------|------------------------|  
--3-----------3---------|--1--------1------------|--1---------1-----------|   


                   Before you turn                       around              
------------------------|------------------------xx---------------0--------|  
--0-----------0---------|-----0------------------xx--1------------1--------|  
--------0-----------0---|-----------0------------xx--------0---------------|  
-----0-----------0------|--------0---------------xx-----2------------------|  
-----------0------------|--2---------------------xx--0--------0------------|  
--3---------------------|--------------3---------xx------------------------|   


          now                   now  
--------------0---------|--------------1---------|--------------1---------|  
--1-----------1---------|--1-----------1---------|--1-----------1---------|  
--------0---------------|--------2---------------|--------2---------------|  
-----2------------------|-----3------------------|-----3------------------|  
------------------------|------------------------|------------------------|  
--3--------3------------|--1--------1------------|--1--------1------------|   


           Before you turn around  
------------------------|------------------------xx----------------0-------|  
--0-------------0-------|-----0------------------xx--1-------------1-------|  
----------0-----------0-|-----------0------------xx----------0-------------|  
-------0-----------0----|--------0---------------xx-------2----------------|  
-------------0----------|--2---------------------xx--3----------3----------|  
--3---------------------|--------------3---------xx------------------------|    



----------------0-------|----------------0-------|----------------0-------|  
--3-------------3-------|--1-------------1-------|--1-------------1-------|  
----------0-------------|----------0-------------|----------0-------------|  
-------0----------------|-------2----------------|-------2----------------|  
--2----------2----------|--0----------0----------|------------------------|  
------------------------|------------------------|--3----------3----------|   


                                                             Before you   
----------------1-------|-----------------1------|------------------------|  
--1-------------1-------|--1--------------1------|--0----------0----------|  
----------2-------------|-----------2------------|-------0-----------0----|  
-------3----------------|--------3---------------|-----0----------0-------|  
------------------------|------------------------|----------0-------------|  
--1-----------1---------|--1-----------1---------|--3---------------------|   


  turn around   
------------------------xx--0-------------------xxx  
-----0------------------xx--1-------------------xxx  
-----------0------------xx--0-------------------xxx  
--------0---------------xx--2-------------------xxx  
--2---------------------xx--3-------------------xxx  
--------------3---------xx--0-------------------xxx  
                                C chord   
--------------------------------------------------------------------------------

Compartilhe esta música: novo

QR Code
Copiar