Acting like a fool

Matt Costa

Tom: G
  D		G  Bm C  D 
e 2-------1-3---3--2-----2--3--2---------| 
B 3-------1-3---3--3--1--3--3--3--1--1--1| 
G 2-------------0--4--0--2--0--4--0--0--0| 
D 0-0h3p0-------0--4--2--0--0--4--2--0--0| 
A --------------2--2--3-----2--2--3--2--0| 
E --------------3-----------3------------| 
 
C Sequence (Called C-S in the tab) 
 
d-------0 <- G 
a-3-2-0-2 
E-------3 
G Bm C D I've collected all my things and put it all in boxes G Bm C D I'll pay off all my dues don't care what the cost is G Bm C-S For acting like for acting like a fool G Bm C D From a different city I was looking at the changes G Bm C D Everything just looks the same and it's me that feels the strangest G Bm C D what am I supposed to do when I'm head to toe in lies G Bm C-S G In a broken city with the nights hung over eyes G Bm C D When I'm acting like acting like a fool G Bm C D I know I might have said some things to you G Bm C D You know I try but still I play the fool G Bm C-S I'm acting like acting like a fool
e 2-------1-3-- 
B 3-------1-3-- 
G 2------------ 
D 0-0h3p0------ 
A ------------- 
E ------------- 
G Bm C D I'm heading for a plane guess this is the end well G Bm C D Went flying high so high know I will come down still G Bm C-S Will come down know I will come down Em G C D I turn my head and I look behind but the moments put to rest Em G C D Anything that you said to me has sunk in to my chest G Bm C D When I'm acting like acting like a fool G Bm C D I know I might have said some things to you G Bm C D You know I try and still I play the fool G Bm C-S I'm acting like acting like a fool
Solo here....  
e -----------------------------------------------------------| 
B 12-10-12-----------------------------15--------------------| 
G ---------12-11-9-11-9-11-12-14-14h16----16p14-14/12-11-9-7-| 
D -----------------------------------------------------------| 
A -----------------------------------------------------------| 
E -----------------------------------------------------------| 
 
e -----------------------------------------------------------| 
B -----------------------11----------------------------------| 
G 8-7-5-7-5-7-8-10-10h12----12p10-10/8-7-5-------------------| 
D -----------------------------------------------------------| 
A -----------------------------------------------------------| 
E -----------------------------------------------------------| 
 
I don't know what is the rest of the solo...there are some chords after the 
10/8 7 5 sequence... i'm working on that... 
Em G C D I turn my head and I look behind but the moments put to rest Em G C D Anything that you said to me has sunk in to my chest G Bm C D When I'm acting like acting like a fool G Bm C D I know I might have said some things to you G Bm C D You know I try and still I play the fool G Bm C-S I'm acting like acting like a fool

Compartilhe esta música: novo

QR Code
Copiar