Unwell (Acustic)

Matchbox Twenty

Tom: Eb
A afinação é: Eb Ab Db Gb Bb Eb  
  
eb|--------5-7-5-------------5-7-5-5----7p5-------|  
Bb|---5/7--5-7-5--7-5---5/7--5-7-5-5----7p5--7-5--|  
Gb|---4/6---------6-4---4/6------------------6-4--|  
Db|-----------------------------------------------|  
Ab|-----------------------------------------------|  
Eb|-----------------------------------------------|  
  
Eb|--------5-7-5------5-----------------------------------------|  
Bb|---5/7--5-7-5---5--5--7------7--------5--------------5-------|  
Gb|---4/6----------4-----6--6-------6----4--4--2-1/2--4---2/1---|  
Db|---------------------------4------4--------------------------|  
Ab|-------------------------------------------------------------|  
Eb|-------------------------------------------------------------|  
  
eb|--------5-7-5-------------5-7-5-5----7p5-------|  
Bb|---5/7--5-7-5--7-5---5/7--5-7-5-5----7p5--7-5--|  
Gb|---4/6---------6-4---4/6------------------6-4--|  
Db|-----------------------------------------------|  
Ab|-----------------------------------------------|  
Eb|-----------------------------------------------|  
  
Eb|--------5---------5-----------------------------------------|  
Bb|---5/7--5--7---5--5--7------7--------5--------------5-------|  
Gb|---4/6-----6---4-----6--6-------6----4--4--2-1/2--4---2/1---|  
Db|--------------------------4------4--------------------------|  
Ab|------------------------------------------------------------|  
Eb|------------------------------------------------------------|
Verse: D9 E ALL DAY Asus2 F#m STARING AT THE CEILING MAKING D9 E F#m FRIENDS WITH SHADOWS ON MY WALL D9 E ALL NIGHT Asus2 F#m I'M HEARING VOICES TELLING ME D9 THAT I SHOULD GET SOME SLEEP E BECAUSE TOMORROW MIGHT BE GOOD FOR SOMETHING (Pre Chorus) C#m D9 HOLD ON Asus2 E I'M FEELING LIKE I'M HEADED FOR A C#m D9 BREAKDOWN Asus2 E I DON'T KNOW WHY (Chorus) Asus2 D9 I'M NOT CRAZY I'M JUST A LITTLE UNWELL I KNOW RIGHT NOW YOU CAN'T TELL F#m E BUT STAY AWHILE AND MAYBE THEN YOU'LL SEE A DIFFERENT SIDE OF ME Asus2 D9 I'M NOT CRAZY I'M JUST A LITTLE IMPAIRED I KNOW RIGHT NOW YOU DON'T CARE F#m E BUT SOON ENOUGH YOU'RE GONNA THINK OF ME D9 E AND HOW I USED TO BE ME Asus2 F#m TALKING TO MYSELF IN PUBLIC D9 E F#m AND DODGING GLANCES ON THE TRAIN D9 E I KNOW Asus2 F#m I KNOW THEY'VE ALL BEEN TALKING 'BOUT ME D9 I CAN HEAR THEM WHISPER E AND IT MAKES ME THINK THERE MUST BE SOMETHING WRONG C#m D9 WITH ME Asus2 E OUT OF ALL THE HOURS THINKING C#m D9 SOMEHOW Asus2 E I'VE LOST MY MIND (Repeat chorus) D9 (BRIDGE) F# D9 TALKING IN MY SLEEP F# D9 PRETTY SOON THEY'LL COME TO GET ME F# E THEY'LL BE TAKING ME AWAY (Repeat Chorus)

Compartilhe esta música: novo

QR Code
Copiar