Sabendo Que Posso Morrer

Matanza

Tom: C
                           Intro feita no banjo 
e|-8-8-8-8-------------------------------------------------------------------| 
B|--------10-8-8-8-8-5-8-8-8-8-10-8-5----------------------------------------| 
G|-----------------------------------7-5-7-7-7-7-9-7-5-----------------------| 
D|----------------------------------------------------7-5-7-7-7-7-9-7-5------| 
A|---------------------------------------------------------------------7-5-7-| 
    
                           Riff 1 (2x) 
    C                               G                A 
G|-5-5-5-5----------------------------------------------------------------| 
D|--------7-5-5-5-5-2-5-5-5-5-7-5-3---------------------------------------| 
A|---------------------------------5-3-5-5-5-5-7-5-3----------------------| 
E|--------------------------------------------------5-3-5-5-5-5-7-5-3-5-3-| 

         Riff 2 
G|-5-4-2-4-2----| 
D|------5---5-3-|                           
          
         Riff 3 
G|-7-7-7-7-7-4-5-4-2-0-2-|
C Não deveria fazer o que eu faço G A Passar o que eu passo,beber o que Eu bebo C Não deveria dizer o que eu digo G A Vivendo em perigo,o que é que eu Recebo? C G Coisas que eu faço sabendo que A Riff 2 Posso morrer C G Coisas que eu faço na hora em que A Eu penso em você C Não saberia dizer o que eu quero G A Quem eu espero,em quem acredito C Não saberia dizer o que vejo G A Quando eu desejava era ter destruído C G Coisas que eu faço sabendo que A Riff 2 Posso morrer C G Coisas que eu faço na hora em que Riff 3 A Eu penso em você Riff 1 C Não poderia ser de outro jeito G A O que eu tenho feito não é bonito C Não poderia ser diferente G A Com toda essa gente me olhando Esquisito. C G Coisas que eu faço sabendo que A Riff 2 Posso morrer C G Coisas que eu faço na hora em que A Eu penso em você C Não deveria fazer o que eu faço G A Passar o que eu passo,beber o que Eu bebo C Não deveria dizer o que eu digo G A Vivendo em perigo,o que é que eu Recebo? C G Coisas que eu faço sabendo que A Riff 2 Posso morrer C G Coisas que eu faço na hora em que A Eu penso em você C G Coisas que eu faço sabendo que A Riff 2 Posso morrer C G Coisas que eu faço na hora em que Riff 3 A Eu penso em você C G A G|-5-5-5-5--------------------------------------------| D|--------7-5-5-5-5-2-5-5-5-5-7-5-3-------------------| A|---------------------------------5-3-5-5-5-5-7-5-3--| E|--------------------------------------------------5-|

Compartilhe esta música: novo

QR Code
Copiar