O último bar

Matanza

Tom: E
Intro: (E x2/ bateria ) x4 
E      C#    E     C#    E         A        B 
Solo: 
e|----------------------------------------------------------------------------------------------------- 
B|----------------------------------------------------------------------------------------------------- 
G|----------------------------------------4-6-6-6-6-6--4---4-4--6-4---------6-6-6-6-6--4--4-4---------- 
D|--------------------------4----------6------------------6----------6-6--4------------------6---6-4-6- 
A|----4--7-7-7-7-7--4--7---7-7--4--7------------------------------------------------------------------- 
E|-7--------------------------------------------------------------------------------------------------- 
 
 
Solo cont:  ---4-6-7-6-4------------4-----7-4-7-4--------------|D 
            --------------7-4-7---------------------7----------|A 
                   
Riff: A|------7-7--4-4------4-------|   quatro vezes o riff 
      E|--0---------------7-----0---|
E O último bar quando fecha de manhã C# E só me lembra que eu não tenho aonde ir C# E Bom humor tenho demais, mas que diferença faz A B Se você não está aqui pra dividir E Nada hoje em dia é como costumava a ser C# E do jeito que era divertido um tempo atrás C# E Varava noite a dentro pelos bares por aí A B Enchendo a cara e perturbando a paz C# G# Não é nenhuma novidade A E E Eb Ficar uma semana sem dormir C# Em cada esquina tem um bar D E Em cada copo uma vontade de sumir de vez daqui C# G# Mas se eu voltei pra essa cidade A E E Eb Foi atrás de muito tempo que eu perdi C# D E cada vez que passa um cadillac fico eu procurando E se é você a dirigir A E Toda noite tem sempre alguem pra lhe dizer A E ''Que mulher que vai querer te ver assim?'' A E C# Pleno festival, mulherada, carnaval e eu aqui D Intro com uma garrafa já no fim Depois repete tudo mais uma vez
Solo 2º parte: 
e|-------------------------------------------------------------------------------------------------- 
B|---------------------------------------------------------------------------5-5-------------------- 
G|---------------------------------------4-6-6-6-6-6--4---4-4--6-4--4-6-4---6-4-6---4--4------------ 
D|-------------------------4----------6------------------6-----------6--------------------6--6-6-6-6 
A|----4--7-7-7-7-7--4--7--7-7--4--7----------------------------------------------------------------- 
E|-7------------------------------------------------------------------------------------------------ 
 
                 
Solo cont:  ---4-6-7-6-4------------4-----7-4-7-4--------------|D 
            --------------7-4-7---------------------7----------|A 
 
 
Riff 2°parte: : 
A|------7-7--4-4------4-------|     X4 +    D|---------4-7-4-------------------| 
E|--0---------------7-------0-|             A|-------------------- -----4-7-4--| 
                                            E|----7--------------5-------------|
_______________________________________________________ Contribuição: Felipe Teixeira([email protected])

Compartilhe esta música: novo

QR Code
Copiar