Meio Psicopata

Matanza

Tom: A5
Intro 

G|----|--2--------------2-2--------------------------------------------2-------------2-2--------| 
D|-5--|--2--------------2-2-------------3--3-3-2-2-0-0-----------------2-------------2-2--------| 
A|-5--|--0-3^0-2^0-2^3--0-0-3^0-2^0-----3--------------3-3-2-2-0-0-----0-3^0-2^0-2^3-0-0-3^0-2^0| 
E|-3--|-----------------------------0h1-1-------------------------3-3---------------------------| 

G|--------------2-2-2-2-2-2-2-2----------------------2-2-2-2-2-2-2-2------------2-2-2-2-2-2-2-2--| 
D|-----3-3-3-3--2-2-2-2-2-2-2-2---3-2-3-5-3-2-3-2----2-2-2-2-2-2-2-2---3----5---2-2-2-2-2-2-2-2--| 
A|-----3-3-3-3--0-0-0-0-0-0-0-0---3--------------3-2-0-0-0-0-0-0-0-0---3----5---0-0-0-0-0-0-0-0--| 
E|-0h1-1-1-1-1--------------------1------------------------------------1----3--------------------| 

  Riff 1 
D|--5-3-2--2-------------| 
A|-------5---5-3-2-------| 

Riff 2 
A|-5-3-2---2-------------| 
E|-------5---5-3-2-------|
A5 C5 Estava parado, bebendo cerveja, sozinho na porta do bar G5 F5 G5 Mais como nada é perfeito, to vendo um sujeito que vem reclamar A5 C5 Riff1 Dizendo que a vaga em que eu tinha parado meu carro era particular G5 Riff2 F5 G5 De um tal que é dono da rua, e fica na sua que o cara já ta vindo aqui A5 Te matar... C5 G5 A5 É impressionante como eu nunca faço nada C5 G5 A5 É sempre a confusão que vem até aqui C5 G5 A5 Falo isso para o meu psiquiatra F5 G5 Mais é claro, ele não entende A A F A A A5 C5 No dia seguinte parei a pick-up num posto perto daqui G5 F5 G5 Não tinha placa dizendo que tipo de musica eu devia ouvir A5 C5 Riff1 Podia pedir de maneira educada, mais preferiram latir G5 Riff2 F5 G5 Peguei a chave de roda que sempre resolve esse tipo de situação A5 Por aqui... C5 G5 A5 É impressionante como eu nunca faço nada C5 G5 A5 É sempre a confusão que vem até aqui C5 G5 A5 Falo isso para o meu psiquiatra F5 G5 E Mais é claro, ele não entende
SOLO: (A G C B A G F G) Não sei se o B tah certo... 

e|----------------------------------------------------------------------| 
B|----------------------------------------------------------------------| 
G|--------4-5-4~4-5/7-7/9-7-5-7-5-4-5-4---4---------4-5-4~5-4---4-------| 
D|--5-5/7~------------------------------7---7-5-5/7~----------7~--7-6---| 
A|--------------------------------------------------------------------7-| 

e|---------------------------------------8-8-8-8--------------------------------------------| 
B|-------------------------6--6-8-6-8/10-8-8-8-8-12-10-8----------------------------------5~| 
G|-------4-5-4~4-5/7-7/9-7-9--9----------------------------10-9-10~9-7-9~7-5-7~5-4-5-4~-----| 
D|-5-5/7~------------------------------------------------------------------------------7~~--|
~ = deixar a corda soar (ou tocá-la várias vezes rapidamente) C5 G5 A5 É impressionante como eu nunca faço nada C5 G5 A5 É sempre a confusão que vem até aqui C5 G5 A5 Falo isso para o meu psiquiatra F5 G5 Mais é claro, ele não entende FINAL:
G|---------------------------------2| 
D|---------3-2-0---0---------------2| 
A|-0-0-3-0-------3---3-2-0-2-3-2-0-0|

Compartilhe esta música: novo

QR Code
Copiar