Imbecil

Matanza

Tom: Ab
Riff de Entrada 

D|-------------------------4----------------- 2x -- 
A|--4----------------- 2x ----5-4-2-2-4-0-2-------- 
E|-----5-4-2-2-4-0-2------------------------------- 

D|---------------------------------------6~-------- 
A|-------------- 2x ------2-4~---------4-4--- 
E|-----5-4-2-2-4-0-2--------4-5------------------5- 

Base em ataque 
       ---- Ab ----      ---- C# ----     ---- Ab ---- 

G|------------------------2242------------------------- 
D|-------2242--------4444-0020-- 2x -------2242-------- 
A|--4444-0020-- 4x --2222-------------4444-0020-- 2x -- 
E|--2222------------------------------2222------------- 

Final Verso 
G|------------------------------ 
D|--4~-------------------------- 
A|--2~--7~/--542~\---4-2-------- 
E|------5~/--320~\-------5-3-2--
Ab Quando eu acabar Ninguém vai esquecer De quem foi o pior Do mundo, vocês vão ver C# Que o mal vai renascer E não vai sobrar nenhum Ab Porque eu vou dinamitar Explodir é um por um D# E quando eu acabar C# Ninguém vai me chamar Ab De imbecil Ab E agora eu quero ver Quem é que vai falar Depois que eu acabar Com a raça de vocês C# Que o mal vai renascer E não vai sobrar nenhum Ab Porque eu vou dinamitar Explodir é um por um D# E quando eu acabar C# Ninguém vai me chamar Ab De imbecil Repete Riff Entrada Ab Quando eu acabar Ninguém vai esquecer De quem foi o pior Do mundo, vocês vão ver C# Que o mal vai renascer E não vai sobrar nenhum Ab Porque eu vou dinamitar Explodir é um por um D# E quando eu acabar C# Ninguém vai me chamar Ab De imbecil Repete Riff Entrada

Compartilhe esta música: novo

QR Code
Copiar