Eu Não Gosto De Ninguém

Matanza

Tom: B
                           Intro Riff 1 2X                 
G|-------------------------------|-------------------------------| 
D|-4-4-4-4-3-3-3-2-2-------------|-4-4-4-4-3-3-3-2-2-------------| 
A|-2-2----------2----2-2-5-2-2-5-|-2-2----------2----2-2-5-2-0-2-| 
E|--------------------------2----|--------------------------2----| 
                                             Lick 
G|-------------------------------|-2/4-4-4-2-----------------------| 
D|-4-4-4-4-3-3-3-2-2-------------|----------5-4-0-4/5-5-5-4--------| 
A|-2-2----------2----2-2-5-2-2-5-|-------------------------5-4-0-2-| 
E|--------------------------2----|---------------------------------| 

                     (Trecho feito antes do Riff 2 entre E e B tambem)  
A|-2-2-0-2-2-0-2-2-0|----2-5-2-| 
E|------------------|2-5-------| 
       
Riff 2 
D|-4-4-2-0---------| 
A|--------2-0------|
B Não me faça nenhum favor B Não espere nada de mim B Não me fale seja o que for B Sinto muito que seja assim G E Como se fizesse a diferença B Riff 2 O que você acha ruim G E Como se eu tivesse prometido B Riff 2 Alguma coisa pra você G E Eu nunca disse que faria o que é direito B Riff 2 Não se conserta o que já nasce com defeito G F# Não tem jeito E Não há nada a se fazer B D Mesmo que eu pudesse controlar a minha raiva E Mesmo que eu quisesse conviver com a minha dor B D Nada sairia do lugar que já estava A Não seria nada diferente do que sou B Não quero me veja D Não quero que me chame E Não quero que me diga G Não quero que reclame B D A Eu espero que você entenda bem Eu não gosto de ninguém Riff 1 (1x) B Não me faça nenhum favor B Não espere nada de mim B Não me fale seja o que for B Sinto muito que seja assim G E Como se fizesse a diferença B Riff 2 O que você acha ruim G E Como se eu tivesse prometido B Riff 2 Alguma coisa pra você G E Eu nunca disse que faria o que é direito B Riff 2 Não se conserta o que já nasce com defeito G F# Não tem jeito E Não há nada a se fazer B D Mesmo que eu pudesse controlar a minha raiva E Mesmo que eu quisesse conviver com a minha dor B D Nada sairia do lugar que já estava A Não seria nada diferente do que sou B Não quero me veja D Não quero que me chame E Não quero que me diga G Não quero que reclame B D A Eu espero que você entenda bem Eu não gosto de ninguém
G|-----------------------| 
D|-4-4-4-4-3-3-3-2-2-2-2-| 
A|-2-2----------2--------| 


        Solo 

G|-------------------------------------------0-4-4-4-4-4-0-2--| 
D|--------------------------------5-5-5-5-5-5---------------4-| 
A|-2-2-2-0-2-5-5-5-5-5/7-7-7-7-5-7----------------------------| 

G|-------------------------------------| 
D|-4-4-4-4-4-0-2-2-2-2-0-2-4-4-4-4-4-4-| 
A|-------------------------------------| 

G|-7-----------7-----------7------------------------------------------| 
D|-7-9-7-9-7-7-7-9-7-9-7-7-7-9-7-9-7-9-7--7^9-7---4-4-4-4-0-0-2-2-2-2-| 
A|---------------------------------------------9----------------------| 

G|-----------------------| 
D|-4-4-4-4-3-3-3-2-2-2-2-| 
A|-2-2-------------------| 


G|-----------------------| 
D|-4-4-4-4-3-3-3-2-2-2-2-| 
A|-2-2----------2--------|
E Mesmo que eu quisesse conviver com a minha dor B D Nada sairia do lugar que já estava A Não seria nada diferente do que sou B Não quero me veja D Não quero que me chame E Não quero que me diga G Não quero que reclame B D A Eu espero que você entenda bem Eu não gosto de ninguém Riff 1 (1X)

Compartilhe esta música: novo

QR Code
Copiar