Escárnio

Matanza

Tom: A
 
		 
Intro: A  B  C  B  E  A  B  C  D   

e|----------------------------------------------------------| 
B|----------------------------------------------------------| 
G|----------------------------------------------------------| 
D|------------7--9--10---------------7----------------------| 
A|--5--8--7-------------11--8--7--8-----8--7--8--7--8--7----| 
E|----------------------------------------------------------| 
( A ) Tudo brilha, tudo é lindo, e seus amigos são de ouro Você é um sábio, um milionário, um malandro poderoso A bebida desce doce amacia o cigarro A fumaça é perfumada, você manda no seu carro D A O problema é que no fim vem a conta D A O problema é que no fim tem que pagar D A O que mata é que o garçom tem um tridente B E vai ter eternidade pra cobrar ( A ) Todos riem da piada que não tem nenhuma graça O mal gosto te define, esculpido em carrara Os problemas são dos outros Só importa a sua vida, o escárnio é seu compasso, a falsidade é sua amiga D A O problema é que no fim vem a conta D A O problema é que no fim tem que pagar D A O que mata é que o garçom tem um tridente B E vai ter eternidade pra cobrar
Solo: 
e|-----------------------------------------------------------------------------------| 
B|-----------------------------------------------------------------------------------| 
G|---------9------------9------------7-----------7-----------------------------------| 
D|--7--10----10--7--10----10---5--9-----9--5--9-----9---------10-------------10------| 
A|-----------------------------------------------------8--12------12--8--12-----12---| 
E|-----------------------------------------------------------------------------------| 

e|-----------------------------------------------------------------------------------| 
B|----------------------------------------------------------------8--10--------------| 
G|--------------------------------------7--9--7--------------------------9-0-7--0----| 
D|-------------------7--9--7--7--9--10-----------10--9--10-9--10------------------7--| 
A|---7--8--7--8--10------------------------------------------------------------------| 
E|-----------------------------------------------------------------------------------| 
D A O problema é que no fim vem a conta D A O problema é que no fim tem que pagar D A O que mata é que o garçom tem um tridente B E vai ter eternidade pra cobrar

Compartilhe esta música: novo

QR Code
Copiar