Ela roubou meu caminhão (ver. 2)

Matanza

Tom: D
Intro {x2}:                                            
 
   D       A        D       A 
e|----------------------------------| 
B|----------------------------------| 
G|-----2-----2-4-2------2-----------| 
D|-0-0---0-4--------0-0---0-4-------| 
A|----------------------------0-2-4-| 
E|----------------------------------| 
 
   D       A       D       A 
e|---------------------------------| 
B|---------------------------------| 
G|-----2-----2-4-2-4-4-5-4-2-------| 
D|-0-0---0-4-----------------0-2-4-| 
A|---------------------------------| 
E|---------------------------------| 
Depois de uma vez tocada a Intro entra a base. Verso 1: D A D A Ela roubou meu caminhão D A D A Ela roubou meu caminhão D A D A Ela escreveu dizendo que não me aguentava mais D A D A E foi embora com meu caminhão D A D A Foi embora e me deixou aqui D A D A Foi embora e me deixou aqui D A D A Quando eu acordei e vi meu caminhão não tava mais D A D E F# G E nunca mais na vida eu vou dormir Refrão: D E eu que tinha até tatuado o nome dela G Eu pensava nela toda noite nesses A Dez anos que eu passei trancado naquela prisão A A (pausa) Essa foi demais A A (pausa) Isso não se faz A A (pausa) A D Ninguém vai acreditar ela roubou meu caminhão Toca Intro uma vez. Verso 2: D A D A Ela já deve estar bem longe daqui D A D A Ela já deve estar bem longe daqui D A D A Daqui pode ter pego qualquer rodovia federal D A D A E foi entrou na reta até sumir D A D A Só me pergunte o que é que aconteceu D A D A Só me pergunte o que é que aconteceu D A D A Ela ter ido embora tudo bem eu não tô nem aí D A D E F# G Perder meu caminhão foi que doeu Refrão {x1} Intro {x2} Outro: C G D Sinceramente pensei que dessa vez fosse me regerar C G D Trabalhando honestamente com esposa cuidando do lar F G D Uma vida bem normal pra envelhecer em paz F G A Mas o destino quis assim e agora tanto faz (pausa) A Do bar não saio nunca mais
Solo: 
  D      A       D      A  
e|------------------------| 
B|------------------------| 
G|------------------------| 
D|-0-0-4-2-0---0-0--------| 
A|-----------2------------| 
E|------------------------| 
   D      A       D      A        D       A 
e|----------------------------------------------| 
B|--------------------------------3-3-3-3-------| 
G|-2--2-2-4-2---2-2-----------------------4-2---| 
D|------------4-------------------------------4-| 
A|----------------------------------------------| 
E|----------------------------------------------| 
 
   D       A      D       A       D     A       D    
e|------------------------------------------------| 
B|----------------------------------3-------------| 
G|-2-2-2-2----------------------------4-2---------| 
D|---------4-2-0--4-4-4-4-2-2-4-2-0-------5-4-2-0-| 
A|------------------------------------------------| 
E|------------------------------------------------| 
D Ela roubou meu caminhão Ela roubou meu caminhão D Ela escreveu dizendo que não me aguentava mais A E foi embora com meu caminhão D D D D Foi embora e me deixou aqui D D D D Foi embora e me deixou aqui D A D A Quando eu acordei e vi meu caminhão não tava mais D A D E F# G E nunca mais na vida eu vou dormir Refrão {x1} Intro {x2}

Compartilhe esta música: novo

QR Code
Copiar