Conforme Disseram As Vozes

Matanza

Tom: D
 
Solo 2x: 
          D                                           A 
e|----------------------------|----------------------------| 
B|----------------------------|----------------------------| 
G|-------7-7-7----------------|-------7-7-7----------------| 
D|-7-9-7-------7-9-7---7------|-7-9-7-------7-9-7---7------| 
A|-------------------9---5--5-|-------------------9---7--7-| 
E|----------------------------|----------------------------| 
                                                     D 
e|----------------------------|----------------------------| 
B|----------------------------|----------------------------| 
G|----------------------------|----------------------------| 
D|-------7-7-7----------------|-------7-7-7----------------| 
A|-7-9-7-------7-9-7---7------|-7-9-7-------7-9-7---7-5--5-| 
E|-------------------9---5--5-|-------------------9--------| 
 
D Naquele dia comecei a ouvir as vozes A Que me falavam coisas sobre o meu destino Do dia em que eu me tornaria de um sujeito ordinário D A um sistemático assassino G Eu esperei, conforme disseram as vozes D Pelo sinal do final do nosso tempo E então passei pela mensagem revelada A G D Logo na entrada de um grande estacionamento (Intro) D Não entendia direito todas as vozes A Mal compreendia qual era o objetivo No entanto, tão rápido que se fala D Enchi o porta-malas do carro com os explosivos G Estacionei, conforme disseram as vozes D Na lateral, junto às portas do cinema Senti pena pelos carros importados A G D Mas as vozes garantiram que valeria a pena (Intro) D E de repente cessaram todas as vozes D A Como se nunca tivessem existido Alívio que seria memorável D Se eu não fosse o responsável por um shopping destruído G E desde então nunca mais ouvi as vozes, D Mas eu duvido que isso mude a minha sorte O meu futuro é um pouco incerto A G D Daqui eu sigo direto para o corredor da morte

Compartilhe esta música: novo

QR Code
Copiar