Sunday Morning

Maroon 5

Tom: F
Intro: Dm - G - C (C)   
   
 Dm                   G7         Cmaj7        
    Sunday morning rain is falling   
Dm                   G         C   
Steal some covers share some skin   
Dm               G             C   
Clouds are shrouding us in moments unforgettable   
      Dm               G              C   
You twist to fit the mold that I am in   
      Dm                  G           C   
But things just get so crazy living life gets hard to do   
               Dm            G              C   
And I would gladly hit the road get up and go if I knew   
           Dm            G              C   
That some day it would lead me back to you   
That some day it would lead me back to you   
    
Dm G C Dm G C That may be all I need In darkness she is all I see Dm G C Come and rest your bones with me Dm G C Driving slow on Sunday Morning and I never want to leave
Dm G C Dm G C Fingers trace your every outline Paint a picture with my hands Fm G C Back and forth we sway like branches in a storm Dm G C Change of weather, still together when it ends.Chorus
Bridge after 2nd Chorus   
e-------------------------------------------------------------------------   
b------------------------------------------------------------------------   
g------------------------------------------------------------------------   
d-----1--2----------------------------------------------1----------------   
a--3---------3P2P1 (1)-2H 3----2H3---2H3------------1H3-------------   
E----------------------------3-----2-----1---1--3---------------------   
					                  
                                                      Yeah yeah...Chorus   
e------------------------------------------------------x---x-----   
b------------------------------------------------------1---2----   
g------------------------------------------------------x---x-   
d-----1--2---------------------------------------------2---3-   
a--3---------3P2P1-(1)-2H3----2H3-----2H3--------------3---4---   
E--------------------------3-------2-------1---1---3----------

Compartilhe esta música: novo

QR Code
Copiar