Todo Mundo Vai Sofrer

Marília Mendonça

Tom: Eb
Capotraste na 1ª casa

Intro: D A 

Primeira Parte 

      D 
A garrafa precisa do copo 
   A 
O copo precisa da mesa 
   Em                 D/F# 
A mesa precisa de mim 
  G 
E eu preciso da cerveja 

Pré-Refrão 

                  D              A 
Igual eu preciso dele, na minha vida 
            Em                          G 
Mas quanto mais eu vou atrás, mais ele pisa 
                  D 
Então já que é assim 
                     A 
Se por ele eu sofro sem pausa 
                 Em 
Quem quiser me amar 
 G      D/F#     Em     D        A 
Também vai sofrer nessa bagaça 

D Quem eu quero, não me quer A Quem me quer, não vou querer Em Ninguém vai sofrer sozinho G Todo mundo vai sofrer D Quem eu quero, não me quer A Quem me quer, não vou querer Em Ninguém vai sofrer sozinho G Todo mundo vai sofrer
Solo D A Em G
E|----------------------------------------------------| 
B|-------------7/10--7~-----------7/10--10~-----------| 
G|--/7-7-7---7----------9-9-9---9---------------------| 
D|---------7------------------7-----------------------| 
A|----------------------------------------------------| 
E|----------------------------------------------------| 

E|----------------------------------------------------| 
B|--5-7-8-7-5------------5-7-8-7-5--------------------| 
G|------------7-4------------------7-4----------------| 
D|----------------------------------------------------| 
A|----------------------------------------------------| 
E|----------------------------------------------------| 

E|----------------------------------------------------| 
B|-------------7/10--7~-----------7/10--10~-----------| 
G|--/7-7-7---7----------9-9-9---9---------------------| 
D|---------7------------------7-----------------------| 
A|----------------------------------------------------| 
E|----------------------------------------------------| 
Pré-Refrão D A Igual eu preciso dele, na minha vida Em D/F# G Mas quanto mais eu vou atrás, mais ele pisa D Então já que é assim A Se por ele eu sofro sem pausa Em Quem quiser me amar G D/F# Em D A Também vai sofrer nessa bagaça
D Quem eu quero, não me quer A Quem me quer, não vou querer Em Ninguém vai sofrer sozinho G Todo mundo vai sofrer D Quem eu quero, não me quer A Quem me quer, não vou querer Em Ninguém vai sofrer sozinho G Todo mundo vai sofrer D Quem eu quero, não me quer A Quem me quer, não vou querer Em Ninguém vai sofrer sozinho G Todo mundo vai sofrer D Quem eu quero, não me quer A Quem me quer, não vou querer Em Ninguém vai sofrer sozinho G Todo mundo vai sofrer
( D A Em G ) ( D A )
E|----------------------------------------------------| 
B|-------------7/10--7~-----------7/10--10~-----------| 
G|--/7-7-7---7----------9-9-9---9---------------------| 
D|---------7------------------7-----------------------| 
A|----------------------------------------------------| 
E|----------------------------------------------------| 

E|----------------------------------------------------| 
B|--5-7-8-7-5------------5-7-8-7-5--------------------| 
G|------------7-4------------------7-4----------------| 
D|----------------------------------------------------| 
A|----------------------------------------------------| 
E|----------------------------------------------------| 

E|----------------------------------------------------| 
B|-------------7/10--7~-----------7/10--10~-----------| 
G|--/7-7-7---7----------9-9-9---9---------------------| 
D|---------7------------------7-----------------------| 
A|----------------------------------------------------| 
E|----------------------------------------------------| 
Em Ninguém vai sofrer sozinho G D Todo mundo vai sofrer

Compartilhe esta música: novo

QR Code
Copiar