Tom: A
  
Intro: Bm7  F#m  E  
       Bm7  F#m  E  

 
E|----------------------------------------------------|  
B|-0h2-3-3-3-3-3-3-3-2----------2---5-----------------|  
G|---------------------2---2h4----4-------------------|  
D|----------------------------------------------------|  
A|----------------------------------------------------|  
E|----------------------------------------------------|  

E|----------------------------------------------------|  
B|-5-9-10-9/10-9--7-7-7-5-5-5-------------------------|  
G|----------------------------------------------------|  
D|----------------------------------------------------|  
A|----------------------------------------------------|  
E|----------------------------------------------------|  


E|----------------------------------------------------|  
B|-0h2-3-3-3-3-3-3-3-2----------2---------------------|  
G|---------------------2---2h4----4-------------------|  
D|----------------------------------4h6---------------|  
A|----------------------------------------------------|  
E|----------------------------------------------------|  

E|----------------------------------------------------|  
B|-5-9-10-9/10-9--7\5-5~------------------------------|  
G|----------------------------------------------------|  
D|----------------------------------------------------|  
A|----------------------------------------------------|  
E|----------------------------------------------------|
Bm7 F#m No começo, eu entendia E Mas era só cama, não tinha amor Bm7 F#m Lembro quando você dizia E Vou desligar porque ela chegou Pré-Refrão Bm7 F#m E E a gente foi se envolvendo, perdendo o medo Bm7 F#m E Não tinha lugar e nem hora pra dar um beijo D Coração não tá mais aceitando Dm A Só metade do seu: te amo
Riff  

E|----------------------------------------------------|  
B|-5-9-10-9/10-9--7\5-5~------------------------------|  
G|----------------------------------------------------|  
D|----------------------------------------------------|  
A|----------------------------------------------------|  
E|----------------------------------------------------|
E A É uma ciumeira atrás da outra E Ter que dividir seu corpo e a sua boca Bm7 Tá bom que eu aceitei por um instante D A verdade é que amante não quer ser amante E A É uma ciumeira atrás da outra E Ter que dividir seu corpo e a sua boca Bm7 Tá bom que eu aceitei por um instante D A verdade é que amante não quer ser amante E A É uma ciumeira atrás da outra
Solo: Bm7 F#m E Bm7 F#m E
 
E|----------------------------------------------------|  
B|-0h2-3-3-3-3-3-3-3-2----------2---5-----------------|  
G|---------------------2---2h4----4-------------------|  
D|----------------------------------------------------|  
A|----------------------------------------------------|  
E|----------------------------------------------------|  

E|----------------------------------------------------|  
B|-5-9-10-9/10-9--7-7-7-5-5-5-------------------------|  
G|----------------------------------------------------|  
D|----------------------------------------------------|  
A|----------------------------------------------------|  
E|----------------------------------------------------|  

E|----------------------------------------------------|  
B|-0h2-3-3-3-3-3-3-3-2----------2---------------------|  
G|---------------------2---2h4----4-------------------|  
D|----------------------------------4h6---------------|  
A|----------------------------------------------------|  
E|----------------------------------------------------|  

E|----------------------------------------------------|  
B|-5-9-10-9/10-9--7\5-5~------------------------------|  
G|----------------------------------------------------|  
D|----------------------------------------------------|  
A|----------------------------------------------------|  
E|----------------------------------------------------|
Pré-Refrão Bm7 F#m E E a gente foi se envolvendo, perdendo o medo Bm7 F#m E Não tinha lugar e nem hora pra dar um beijo D Coração não tá mais aceitando Dm A Só metade do seu: te amo
E A É uma ciumeira atrás da outra E Ter que dividir seu corpo e a sua boca Bm7 Tá bom que eu aceitei por um instante D A verdade é que amante não quer ser amante E A É uma ciumeira atrás da outra E Ter que dividir seu corpo e a sua boca Bm7 Tá bom que eu aceitei por um instante D A verdade é que amante não quer ser amante E A É uma ciumeira atrás da outra E Ter que dividir seu corpo e a sua boca Bm7 Tá bom que eu aceitei por um instante D A verdade é que amante não quer ser amante E A É uma ciumeira atrás da outra

Compartilhe esta música: novo

QR Code
Copiar