Toda Dor É Por Enquanto

Marcos Almeida

Tom: C
      Am                    C                 G             F       G      Am 
E|-----------------------------------------------------------------------------| 
B|--1-----------------------------3----1----0---0-0h1p0---1-------3------------| 
G|--2-0h2-2--0h2p0-----0--------------------0-------------2--2----4--5---5-4-2-| 
D|--2---------------0h2---0h2---2----2------0-------------3-------5------7-----| 
A|--0---------------------3----------3--------------------3-------5------7-----| 
E|------------------------------------------3----------------------------------| 

(Riff 1) 

      Am  G   F   G   F        E4      D4      Am        C          Am7 
E|---------------------------------------------------------------------| 
B|-----------------------------------------------------1-----------1---| 
G|--5---4---3---0-----10-10---9-10---7-9-7-------------0-----------0---| 
D|--7---5---3---0----7--------7-7----5-5-5---7---------2-----------2---| 
A|--7---5---2---2---8---------7-7----5-5-5---0---------3--3-3p2-2--0---| 
E|--------------3------------------------------------------------------| 
Am7 Am7/B C G Toda dor é por enquanto F G Am Riff 1 A tua alegria, daqui até o fim e eternamente Am7 Am7/B C G Toda dor é por enquanto F G Am Riff A tua alegria, daqui até o fim C/G C4 G C4 E eternamente C/G C4 A alegria, verá meu rosto sem lágrimas Verá, raiar o dia em que Jesus cristo irá voltar C/G G Am7 D7/A Am7 D7/A Am7 D7/A F7M Bb7(13) Nas alturas, com seus anjos e as trombetas anunciando Dm7 Dm7/C Bb6 Vem completando a obra, que começa agora Am7/11 Dm7 Dm7/C G7M Misturada na dor, que é por enquanto Dm7 Dm7/C Bb6 Vem completando a obra, que começa agora Am7/11 Dm7 Dm7/C G7M Misturada no amor, que é para sempre Dm7 Dm7/C Bb6 Vem completando a obra, que começa agora Am7/11 Dm7 Dm7/C G7M Misturada na dor, que é por enquanto Dm7 Dm7/C G7M Vem completando a obra, que começa agora Am7/11 Dm7 Dm7/C G7M G7 Misturada no amor, que é para sempre... sempre Am7 C F7M(9) Toda dor é por enquanto

Compartilhe esta música: novo

QR Code
Copiar