Tão Simples

Mandala

Tom: A9
A9      D          F#m 
Numca pensei que pudesse 
              E 
Ligar para alguem se não eu 
A9              D    
Errei ao me apaixonar 
      F#m                E 
Por alguem melhor do que eu ja mais serei 
 
D       F#m           D 
Tento lutar pra não mais 
           F#m         D 
Maguar e deixar quem iludiu 
D       F#m          E  
É tão simples mas insisto em complicar 

D E F#m E dessa vez Dizer adeus D E Que ira duer em mim tambem
A9 D Eu confiei F#m E A você histórias de amores que estraguei A9 D F#m E Agora você podera dar fim a historia Que escrevi D F#m D Não posso estragar estar em mim F#m D Sei que magoei quem me amou F#m E É tão simples mas insisto em complicar
D E F#m E dessa vez Dizer adeus D E F#m Que ira duer em mim tambem
SOLO 
Base - F#m - D - E - F#m - D - E 
 
e|--/14--16-12---------------------9h10-9----10h14-10----14-12-10-9-- 
B|-------------14-12------------12--------12----------12------------- 
G|-------------------14---11-14-------------------------------------- 
D|------------------------------------------------------------------- 
A|------------------------------------------------------------------- 
E|------------------------------------------------------------------- 
 
e|--9h10p9-12--10-12-10-12/14-12-14-16-16b17-16-14-12-----14-16-17-16---- 
B|-----------------------------------------------------14-------------17- 
G|----------------------------------------------------------------------- 
D|----------------------------------------------------------------------- 
A|----------------------------------------------------------------------- 
E|----------------------------------------------------------------------- 
 
e|-----14-16-17-16-16/19-----14-16-17-16-12/14/-12--16--18------ 
D|--14--------------------14-------------------------------21--- 
G|-------------------------------------------------------------- 
D|-------------------------------------------------------------- 
A|-------------------------------------------------------------- 
E|--------------------------------------------------------------
D E F#m E dessa vez Dizer adeus D E F#m 2x Que ira duer em mim tambem

Compartilhe esta música: novo

QR Code
Copiar