Uma Vida A Mais (part. Marília Mendonça)

Maiara e Maraisa

Tom: Am
Intro Am7  F  G   
        Am7  F  G 
        Am7  F  G 
        Am7  F  G  Am7 
E|-------------------------------------------| 
B|-------6/8-6--5h6p5------------------------| 
G|-----5---------------7-5-7/9~--------------| 
D|-5h7---------------------------------------| 
A|-------------------------------------------| 
E|-------------------------------------------| 

E|-------------------------------------------| 
B|-----8\5-----------------------------------| 
G|---5-----7-5------------7-5h7--5-4---------| 
D|-7-----------7--5h7-7/9------------7-------| 
A|-------------------------------------------| 
E|-------------------------------------------| 

Verso 1:

Am F7M Meus passos seguem G Am7 Um destino traçado F7M G Am7 Nesse momento estão desacelerados F7M G Am7 Na espera que alcance o meu caminho F7M G Pensei que fosse nosso, eu pensei
Am7 F Espero mais um dia C9 G Ou quem sabe um mês Am7 F Espero mais um dia C9 G Uma vida talvez C G Eu ainda me encontro F C No mesmo lugar Am7 F E se você quiser G Am7 Te espero uma vida a mais
( Am7 F G ) ( Am7 F G Am7 )

Verso 2:

Am7 F Ás vezes sinto G Am7 Sua falta, mas sei F Que estou na direção G Am7 Correta, eu sei F Pressentimentos G Am7 Talvez sexto sentido F D Te vejo comigo, outra vez
Am7 F Espero mais um dia C9 G Ou quem sabe um mês Am7 F Espero mais um dia C9 G Uma vida talvez C G Eu ainda me encontro F C No mesmo lugar Am7 F E se você quiser G Te espero uma vida a mais
( Am7 F7M Am7/G A )

Verso 3:

D9 E vai valer a pena D A/C# É claro que eu sei Bm7 A recompensa Que eu sempre sonhei A Cada minuto sinto G Que é mais real A B Ganhar seu beijo, é o meu desejo
C#m7 A Espero mais um dia E B9 Ou quem sabe um mês C#m7 A Espero mais um dia E/G# B Uma vida talvez E B9 Eu ainda me encontro A E No mesmo lugar C#m7 A E se você quiser B9 Te espero uma vida a mais Uma vida a mais ( C#m7 A E B9 ) C#m7 A E B9 Uma vida a mais C#m7 Uma vida a mais

Compartilhe esta música: novo

QR Code
Copiar