Sorte Que Cê Beija BemCifra Verificada

Maiara e Maraisa

Tom: G
Solo - Intro 
e|---------------------------------------------------------| 
B|------5/8--7--5--2/3-------------------------------------| 
G|-5/7------------------5/7--7--7--7\5--4--2--2h4--2/4-----| 
D|------6/9--7--5--3/4-------------------------------------| 
A|---------------------------------------------------------| 
E|---------------------------------------------------------| 
Intro: C9 D/F# G C9 D/F# Eu jurei não bater na sua porta G Olha eu batendo G4 E quebrando outra promessa C9 D/F# Eu tentei não tocar mais no seu nome G Mas de cada três palavras Uma me interessa
Passagem 

e|----------------------------------------------------------| 
B|-1p0------------------------------------------------------| 
G|------2p0-------------------------------------------------| 
D|-----------2p0--------------------------------------------| 
A|----------------------------------------------------------| 
E|----------------------------------------------------------|
Am D/F# Você é um problema que eu quero ter G Mesmo sabendo que eu não consigo resolver Am D/F# Eu prometo que não vou te amar G D Porque essa promessa eu vou fazer questão de quebrar
G Sabe o que você tem? D Tem sorte que cê beija bem Am C Você é a corda bamba que eu aprendi a andar G Sabe o que você tem? D Tem sorte que cê beija bem Am C Só me deixar ir porque sabe que eu vou voltar
 
Padrão Ritmo  
e|-------------------------------| 
B|-3--3--X--3-----3--------------| 
G|-0--0--X--0-----0--------------| 
D|-2--2--x--2-----2--------------| 
A|-3--------3--3-----------------| 
E|-------------------------------| 

Compartilhe esta música: novo

QR Code
Copiar