Ai Eu Bebo

Maiara e Maraisa

Tom: Bm
Intro: Bm  A  Bm  A 

E|------------------------------------------| 
B|-----3-5/7-5-3----3------3-5/7-5-3---3----| 
G|-4-6------------6----4-6-----------6------| 
D|------------------------------------------| 
A|------------------------------------------| 
E|------------------------------------------|

E|------------------------------------------| 
B|---2-3-5-3-2---2----2-3-5-3-2-------------| 
G|-2-----------4----2-----------4-2-2/4-----| 
D|------------------------------------------| 
A|------------------------------------------| 
E|------------------------------------------|

Verso 1:

Bm Deu sexta-feira de novo Em Já sei aonde isso vai dar Bm É dia de chopp em dobro Em Sei lá se eu vou aguentar G9 A9 Ficar sem beber, ficar sem ligar Bm Ficar sem chorar
G Aí eu bebo D E fico tonto A Lembro de nada Bm Nem do meu nome G Esqueço tudo D Quase tudo A Só não esqueço Bm Seu telefone G Aí eu bebo D E fico tonto A Lembro de nada Bm Nem do meu nome G Esqueço tudo D Quase tudo A Só não esqueço Bm Seu telefone G D Aí eu ligo, ligo, ligo, ligo, ligo, ligo A Bm Não me atende e eu só bico, bico, bico G D Aí eu ligo, ligo, ligo, ligo, ligo, ligo A Bm Não me atende e eu só bico, bico, bico
Solo A Bm A
E|------------------------------------------| 
B|-----3-5/7-5-3----3------3-5/7-5-3---3----| 
G|-4-6------------6----4-6-----------6------| 
D|------------------------------------------| 
A|------------------------------------------| 
E|------------------------------------------|

E|------------------------------------------| 
B|---2-3-5-3-2---2----2-3-5-3-2-------------| 
G|-2-----------4----2-----------4-2---------| 
D|------------------------------------------| 
A|------------------------------------------| 
E|------------------------------------------|

E|------------------------------------------| 
B|-----3-5/7-5-3----3------3-5/7-5-3---3----| 
G|-4-6------------6----4-6-----------6------| 
D|------------------------------------------| 
A|------------------------------------------| 
E|------------------------------------------|

E|------------------------------------------| 
B|---2-3-5-3-2---2----2-3-5-3-2-------------| 
G|-2-----------4----2-----------4-2-2/4-----| 
D|------------------------------------------| 
A|------------------------------------------| 
E|------------------------------------------|

Verso 1:

Bm Deu sexta-feira de novo Em Já sei aonde isso vai dar Bm É dia de chopp em dobro Em Sei lá se eu vou aguentar G9 A9 Ficar sem beber, ficar sem ligar Bm Ficar sem chorar
G Aí eu bebo D E fico tonto A Lembro de nada Bm Nem do meu nome G Esqueço tudo D Quase tudo A Só não esqueço Bm Seu telefone G Aí eu bebo D E fico tonto A Lembro de nada Bm Nem do meu nome G Esqueço tudo D Quase tudo A Só não esqueço Bm Seu telefone G Aí eu bebo D E fico tonto A Lembro de nada Bm Nem do meu nome G Esqueço tudo D Quase tudo A Só não esqueço Bm Seu telefone G D Aí eu ligo, ligo, ligo, ligo, ligo, ligo A Bm Não me atende e eu só bico, bico, bico G D Aí eu ligo, ligo, ligo, ligo, ligo, ligo A Bm Não me atende e eu só bico, bico, bico
Solo
E|------------------------------------------| 
B|-----3-5/7-5-3----3------3-5/7-5-3--------| 
G|-4-6------------6----4-6-----------6-4----| 
D|------------------------------------------| 
A|------------------------------------------| 
E|------------------------------------------|
Bm Deu sexta-feira de novo

Compartilhe esta música: novo

QR Code
Copiar