Simple Man

Lynyrd Skynyrd

                     (GUITAR TAB) 
song:simple man 
artis:lynyrd skynyrd 
tabed by:ricky griggs 
  tip:(its easier if u leave your first fingure on the  
1st ft b string)   
 C 
e-----------------------------------------------------------3-- 
B-------------1--------------------------------1-------------1 
G-------0-------0---0---------0----------2-------2---2----2---- 
D---------2-------2-----0-------0---0------2-------2-------2--- 
A-0-2-3-----3-------------2-------2----0-----0---------0----0-- 
E---------------------3-----3---------------------------------- 
 this is played above over and over 
 
e----------------------------------- 
B----------------------------------- 
G-----------------------------------  (2X) 
D----------------------------------- 
A-0-2-3---5/7\5-3---5/7\5-3-0---------0-
E-----------------3------------0-3-0-3--
 this is played with the solo but i havent figured the  
lead guitar yet 
 well this it for now 
  any question e-mail me at: [email protected] 
           
  
           -lader- 

Compartilhe esta música: novo

QR Code
Copiar