Mar Morto

Lupe de Lupe

Tom: Am
Intro 

   Am7 
E|----------------------------------------------------------------------------| 
B|-5--5-------5-----5---------------------------------------------------------| 
G|-5-----5----5--5------------------------------------------------------------| 
D|-7----------7---------------------------------------------------------------| 
A|-0----------0---------------------------------------------------------------| 
E|----------------------------------------------------------------------------| 

   Am7        C7M/G  Dm7(9)                          C7M/G Am7        C7 
E|--------------------------------------------------------------------3--3----| 
B|-5-----5----5------5---------5----------5----------5--5--5-----5----5-------| 
G|-5--5-------4------5--5------5--5-------5--5-------4--4--5--5-------3-----3-| 
D|-7----------5------------7---------7----------7----5--6--7----------5-------| 
A|-0-----------------5---------5----------5-----------------------------------| 
E|----------------------------------------------------------------------------| 
Am7 Por todo mar C7M/G Dm7(9) Eu vou te procurar C7M/G Iemanjá criou o amor Am7 C7 Profundo e pôs no mundo Am7 Pra ninguém achar
   Dm7(9)       Em7           Am7           C7M/G 
E|-0------------0-------------0-------------0---------------------------------| 
B|-5------------0-------------5-------------5---------------------------------| 
G|-5------------7-------------5-------------4---------------------------------| 
D|-3------------5-------------5-------------5---------------------------------| 
A|-5------------7-------------------------------------------------------------| 
E|----------------------------5-------------3---------------------------------|

   Dm7(9)       E7            Am7            
E|-0------------0-------------0-----------------------------------------------| 
B|-5------------0-------------5-----------------------------------------------| 
G|-5------------7-------------5-----------------------------------------------| 
D|-3------------5-------------5-----------------------------------------------| 
A|-5------------7-------------------------------------------------------------| 
E|----------------------------5-----------------------------------------------| 
Am7 Choro pro mar C7M/G Dm7(9) Porque levaste o meu querer C7M/G Naquela noite eu não sabia Am7 C7 Am7 O que esperar direto das profundezas
   Am7             C7M/G          Dm7(9) 
E|----------------------------------------------------------------12----------| 
B|------------13-------------13---------------13--------------13------13------| 
G|---------------------------------------10---------------10------------------| 
D|--------10-------------10-------10/12------------10/12----------------------| 
A|-10/12-----------8/10-------------------------------------------------------| 
E|----------------------------------------------------------------------------| 

                         C7M/G                 Am7 
E|----------------12--------------------13------------------------------------| 
B|---------13-13------13-----------13-------13--------------13----------------| 
G|-----10----------------------12-----------------------12--------------------| 
D|-12----------------------12--------------------12/14------------------------| 
A|----------------------------------------------------------------------------| 
E|----------------------------------------------------------------------------| 
Am7 C7M/G Dm7(9) Hoje a Lua chora o teu penar C7M/G Ao meu amor, meu bem querer Am7 E agora eu vou C7 Dm7(9) Sem rumo a me perder
   Dm7(9)            Em7               Am7               C7M/G            
E|----------------------------------------------------------------------------| 
B|----5--5--5-5-3-5-----5--5--5-5-3-5-----5--5--5-5-3-5-----5--5--5-5-3-5-----| 
G|-------------------------------------2--------------------------------------| 
D|-3-----------------5-----------------------------------5--------------------| 
A|----------------------------------------------------------------------------| 
E|----------------------------------------------------------------------------|

   Dm7(9)             Em7            Am7              
E|--------------------3-------------------------------------------------------| 
B|----5--5--5-5-3-5------6--5--3--5-------------------------------------------| 
G|-----------------------------------2----------------------------------------| 
D|-3--------------------------------------------------------------------------| 
A|----------------------------------------------------------------------------| 
E|----------------------------------------------------------------------------| 
Dm7(9) Em7 Vem cá Am7 Por que criaste assim C7M/G Um amor tão profundo? Dm7(9) Em7 Pra esconder no mar Am7 Que o teu desejo C7M/G Sempre foi só meu desejo Dm7(9) Em7 De cantar, sei lá Am7 C7M/G Que tá me dando uma vontade de te afogar Dm7(9) Em7 Am7 Em sua lua, minha paixão e o meu coração Solo
   Am7                 C7M/G     Dm7(9)                   C7M/G           Am7 
E|-/12---12-10-8-7-8-7-8-7------------8---10------13----------8-10-8-7--------| 
B|-------------------------8-6---3/6------13b15---14b15---3-6-----------8-10b-| 
G|----------------------------------------------------------------------------| 
D|----------------------------------------------------------------------------| 
A|----------------------------------------------------------------------------| 
E|----------------------------------------------------------------------------| 

  C7 
E|-------7----7---------------------------------------------------------------| 
B|-10b12---10-----------------------------------------------------------------| 
G|----------------------------------------------------------------------------| 
D|----------------------------------------------------------------------------| 
A|----------------------------------------------------------------------------| 
E|----------------------------------------------------------------------------|
Final Am7 Em7 Minha jangada vai sair pro mar Am7 C7M/G Vou trabalhar, meu bem querer Dm7(9) Em7 Se Deus quiser quando eu voltar do mar Am7 C7 Um peixe bom eu vou trazer

Compartilhe esta música: novo

QR Code
Copiar