Nobody Else

Los Lonely Boys

Tom: D
Tuning: 1/2 Step Down   Low to High (Eb,Db,Ab,Gb,Bb,Eb) 
Tabbed by: 64dylan64 
 
h=hammer on 
p=pull off 
b=bend 
r=release bend 
/=up slide 
\=down slide 
 
Intro 
 
Rhythm Figure 1 
|--------------------------------------|-----------------------------------| 
|-3--3---------------------------------|-----------------------------------| 
|-2--2---------------------------------|---------7--7--x--6---6------------| 
|-4--4----------------------7--7------7|/5-5-----5--5--x--5---5------------| 
|-5--5-----------5-7/9-9-9--------9----|-----7-7-7--7--x--7---7--0-0h2-5-2-| 
|--------5--6--7-----------------------|------------------5---5------------| 
 Rhythym Figure 2  2x 
|--------------------------------------|-----------------------------------| 
|-------3-x----------------------------|-----------------------------------| 
|-------2-x----------------------------|---------7--7--x--6---6------------| 
|---4-4-4-x------------------7--7-----7|/5-5-----5--5--x--5---5------------| 
|-5-----5-x--------5-7/9-9-9-------9---|-----7-7-7--7--x--7---7--0-0h2-5-2-| 
|------------5-6-7---------------------|------------------5---5------------| 
Riff 1 
|--------------------------------------|-----------------------------------| 
|-------3--3---------------------------|---------------------------------3-| 
|-------2--2------------7--------------|---------2h4---2-----2-----------2-| 
|---4-4-4--4---------5-----------5-----|-5----------------4-----4\2--0---4-| 
|-5-----5--5---6--7--------7--7--------|-7-----------------------------2-5-| 
|----------------------------------7-6-|-5---------------------------------|
Verse 1 D Bm7 Em7 A7 I can't stand to be alone D Bm7 Em7 A7 'cause I go crazy when you're gone D Bm7 Em7 A7 You're the one that makes me whole D Bm7 Em7 A7 I pray you've known this all along Pre-Chorus 1 G Gm D Everything is gonna be alright A I wanna be with you all of my life Interlude Rhythm Figure 1 Riff 1 Verse 2 D Bm7 Em7 A7 I can't wait to be alone D Bm7 Em7 A7 with you baby in my arms D Bm7 Em7 A7 Girl I need you here to hold D Bm7 Em7 A7 You know your love it shines like gold Pre-Chorus 2 G Gm D Baby every minute of the night A that I'm not with you I don't feel right Chorus Rhythm Figure 1 w/ 'Cause I only want to be with you baby and nobody else Rhythm Figure 2 w/ Yes the only girl I see is you baby abd nobody else Rhythm Figure 2
Guitar solo 
 
|-------12---14---15--14--12-----------|-----------------------------------| 
|------x-----------------------15b---r-|14------12p10--10--12--------------| 
|-----x--------------------------------|-----------------------------------| 
|--------------------------------------|-----------------------------------| 
|--------------------------------------|-----------------------------------| 
|--------------------------------------|-----------------------------------| 
 
|-----------9--10--12---12b--r-10h12p10|-9---------------------------------| 
|------12------------------------------|----12p10--10--------------------10| 
|-----x--------------------------------|-------------------7--9p7---9/11---| 
|----x---------------------------------|---------------7h9--------9--------| 
|--------------------------------------|-----------------------------------| 
|--------------------------------------|-----------------------------------| 
 
|--------------------------------------|-----------------------------------| 
|---8-----8-----8-----8---8----8---8---|--------7---7---7----7---7-------10| 
|-------------9---------9--------9-----|-9\7-7--------7--------7----7/11---| 
|--------------------------------------|-----------------------------------| 
|--------------------------------------|-----------------------------------| 
|--------------------------------------|-----------------------------------| 
 
|--------------------------------------|-----------------------------------| 
|--10\8---8-------7h8p7-8p7-8p7--------|-----0--------7h8p7----------------| 
|-------9-----9-----------------7--7---|--------0-7h9-------9p7------------| 
|---------------9----------------------|------------------------9p7----9--8| 
|--------------------------------------|----------------------------9------| 
|--------------------------------------|-----------------------------------| 
 
|--------------------------------------| 
|----------------------------------3---| 
|---------2h4---2------2-----------2---|                                     
|-5---------------2/4----4\2--0----4---| 
|-7-----------------------------0--5---|                                     
|-5------------------------------------|
Verse 3 D Bm7 Em7 A7 Solo yo no quiero estar D Bm7 Em7 A7 sin tu corino y tu amor D Bm7 Em7 A7 No querio vivir sin ti D Bm7 Em7 A7 En mis brazos te quiero asi Pre-Chorus G Gm D Tu eres la unica mujer Bm A te quiero en mi vida por tu querer Chorus D Bm7 Em7 Yes the only girl I see is you A7 baby and nobody else
Outro-Guitar solo 
 
|--------------------------------------|-----------------------------------| 
|-------------8p7----------------------|--------10---8--7------------------| 
|----------0-------9b-r--7----0--9br--9|-7---------0-------7--0------------| 
|----7--9--0---------------9--0--------|-----x-------------------7\5---4---| 
|-/9-----------------------------------|-----x-----------------------------| 
|--------------------------------------|-----------------------------------| 
 
|--------------------------------------|-----------------------------------| 
|----0------0--------------------------|--------------0-0-------7--8p7--0--| 
|-7--0--7\--0-------7-----------7------|----------7---0-0--7-9----------0-7| 
|-7--0------0--4/9-----9---x-x--7---9--|----7-9-----9-0-0---------------0--| 
|--------------------------x-x---------|-----------------------------------| 
|--------------------------------------|-0---------------------------------| 
 
|--------------------------10----10----|10--10-----------------------------| 
|----0----------10--12--10----10----13b|--13-------------------------------| 
|----0--7--7/11------------------------|------12brp10-12brp10-12brp11------| 
|-9--0---------------------------------|------------------------------12-12| 
|--------------------------------------|-----------------------------------| 
|--------------------------------------|-----------------------------------| 
 
|-----------0---0-------------14------------------14-------------| 
|-----------0---0------------------0--------------------0--------| 
|-----------0---0----12/14---------0-----12/14----------0-----12/| 
|----9-----------------------------------------------------------| 
|----------------------------------------------------------------| 
|----------------------------------------------------------------| 
 
|------14-----------------14---------------14\12-----------14-------12--10-| 
|------------0-----------------0----------------------------------------x--| 
|14----------0----12/14--------0---12/14-----------12h14--------12------11-| 
|--------------------------------------------------------------------------| 
|--------------------------------------------------------------------------| 
|--------------------------------------------------------------------------| 
 
|------10-------10-------10------------------------------------------------| 
|-0----10h12----10h12----10----10------10------10--------------------------| 
|-0----------------------------11h12---11h12---11h12p11--------------------| 
|-0--------------------------------------------------------12-----12-------| 
|--------------------------------------------------------------------------| 
|--------------------------------------------------------------------------| 
 
|--------------------------------------------------------------------------| 
|-------------------------------15-----------------17b-----17p15------15---| 
|---------------14------16------------------16---0-------------------------| 
|-----14/16----------------------------------------------------------------| 
|--------------------------------------------------------------------------| 
|--------------------------------------------------------------------------| 
 
|-----------------------------------------15--16--17------------------15---| 
|------------------15----17----15-17b-------------------0--0--17b----------| 
|-------16----0-----------------------------------------0--0---------------| 
|-------------------------------------------------------0--0---------------| 
|--------------------------------------------------------------------------| 
|--------------------------------------------------------------------------| 
 
|--16----17------------------15---16---17-----------17b----17b----17b---17-| 
|-------------0---0--17b----------------------0----------------------------| 
|-------------0---0---------------------------0----------------------------| 
|--------------------------------------------------------------------------| 
|--------------------------------------------------------------------------| 
|--------------------------------------------------------------------------| 
 
|---14--14-15p14--14-15p14----14-15p14--14-15p14----14-15p14--14-15p14-----| 
|--------------------------17--------------------17-------------------17-15| 
|--------------------------------------------------------------------------| 
|--------------------------------------------------------------------------| 
|--------------------------------------------------------------------------| 
|--------------------------------------------------------------------------| 
 
|-----------------------17--------15---14------------------------------| 
|----------0---15---0--------0--------------15---0--------15p17----15--| 
|-----16---0--------0--------------------------------16----------------| 
|----------------------------------------------------------------------| 
|----------------------------------------------------------------------| 
|----------------------------------------------------------------------| 
 
|----------------------------------------------------------------------| 
|-------0--------------------------------------------------------------| 
|---16--0--14h16p14------14------16-------0---9b----r----7---------7---| 
|--------------------16---------------0-----------------------9--------| 
|----------------------------------------------------------------------| 
|----------------------------------------------------------------------| 
 
|------------------------------------------------------------------| 
|---------------------------10------8----7-----------------------7-| 
|-----------7---7---7------------------------7------------7h9----7-| 
|----9------------------9------------------------0---9-------------| 
|------------------------------------------------------------------| 
|------------------------------------------------------------------| 
 
|------------------------------------------------------------| 
|---------------------7--------------------------8/10-----8--| 
|---------------------7--------------------------9/11-----9--| 
|---9------x----x--------------------------------------------| 
|----------x----x-----------------9--------------------------| 
|------------------------------------------------------------| 
 
|-----------------------------------------------------------------------| 
|--------------------------10---------8---7-------------------8------7--| 
|--------7-----------0-----------x-------------7--------------7h9----7--| 
|--------------------0-----------x-------------------0----9-------------| 
|-----------------------------------------------------------------------| 
|-----------------------------------------------------------------------| 
 
|----------------------------------------------------------------| 
|-------------------------------7--------------------8/10----8---| 
|-------------------------------7--------------------9/11----9---| 
|--------9-----------------9------------------9------------------| 
|----------------------------------------------------------------| 
|----------------------------------------------------------------| 
 
|-------------------------------------------------------------------| 
|---------------10---------8---7---------------------------------7--| 
|----------x---------x--------------7-------------------7h9------7--| 
|----------x---------x----------------------0-----9-----------------| 
|-------------------------------------------------------------------| 
|-------------------------------------------------------------------| 
 
|----------------------------------------------------------------| 
|------------------------------7--------------------8/10----8----| 
|------------------------------7--------------------9/11----9----| 
|--------9-----------7---9------------------9--------------------| 
|----------------------------------------------------------------| 
|----------------------------------------------------------------| 
 
|--------------------------------------------------------------------| 
|---7----------------10----------8---7----------------------------7--| 
|---7-----------0----------x---------------7---------------7h9----7--| 
|--------------------------x---------------------0----9--------------| 
|--------------------------------------------------------------------| 
|--------------------------------------------------------------------| 
 
|----------------------------------------------------------------| 
|------------------------------7--------------------8/10----8----| 
|------------------------------7--------------------9/11----9----| 
|--------9-----------7---9------------------9--------------------| 
|----------------------------------------------------------------| 
|----------------------------------------------------------------| 
 
|--------------------------------------------------------------------------| 
|--7-------7---------------10--------8----7----------------------------7---| 
|--7-------7----------x---------x--------------7-----------------7h9---7---| 
|----------------9----x---------x---------------------0-----9--------------| 
|--------------------------------------------------------------------------| 
|--------------------------------------------------------------------------| 
 
|------------------------------------|---------------------------------| 
|---------------7------------8/10--8-|------------8/10--8----7-7----5--| 
|-------0--0----7------------9/11--9-|-----7------9/11--9----8-8----6--| 
|--9----0--0------------9------------|----------0----------------------| 
|------------------------------------|---------------------------------| 
|------------------------------------|---------------------------------| 
 
|------------------------------------| 
|--7-----x--x--x--x--x--x--x--x------| 
|--7-----x--x--x--x--x--x--x--x------| 
|--------x--x--x--x--x--x--x--x------| 
|------------------------------------| 
|------------------------------------|

Compartilhe esta música: novo

QR Code
Copiar