Crazy Dream

Los Lonely Boys

Tom: Em7
Tabbed by: SkylerB 619 
Email: [email protected] 
 
Tuning: Down 1/2 Step 
 
e|-------------------------------------------------------------------------| 
B|-------------------------------------------------------------------------| 
G|-------------------------------------------------------------------------| 
D|---------------x-9-------------------------------------------------------|x2 
A|--x-7-x-7-x-10-------------x-6-x-9-------------x-7---------x-6-x-9-------| 
E|-------------------x-7-x-7---------x-5-x-5-x-8-----x-7-x-7---------------|
Verse: Em7 B7 I tried to find myself Am B7 For a very long time Em7 B7 Somewhere I lost myself Am D Its so hard to find my way back home Em7 D My body's roaming all day long Em7 B7 Feels like a real bad dream Am B7 I try so hard to break free Em7 B7 And even though I try Am D Something else has got a hold on me Em7 D B7 Will I ever be in control of me
Chorus: 
e|--x-7--x-7--x-----x----x-7--x-7--x----x------------------------------------| 
B|--x-8--x-8--x-----x----x-7--x-7--x----x------------------------------------| 
G|--x-7--x-7--x-----x----x-8--x-8--x----x------------------------------------| 
D|--x-9--x-9--x-----x-9--x-7--x-7--x----x------------------------------------| 
A|--x-7--x-7--x-10-------x-9--x-9--x-6--x-9----------------------------------| 
E|-----------------------x-7--x-7--------------------------------------------| 
             When will I wake up 
e|--x-7--x-7--x-----x----x-7--x-7--x----x------------------------------------| 
B|--x-8--x-8--x-----x----x-7--x-7--x----x------------------------------------| 
G|--x-7--x-7--x-----x----x-8--x-8--x----x------------------------------------| 
D|--x-9--x-9--x-----x-9--x-7--x-7--x----x------------------------------------| 
A|--x-7--x-7--x-10-------x-9--x-9--x-6--x-9----------------------------------| 
E|-----------------------x-7--x-7--------------------------------------------| 
             Escape from this crazy dream 
e|--x-7--x-7--x-----x----x-7--x-7--x----x------------------------------------| 
B|--x-8--x-8--x-----x----x-7--x-7--x----x------------------------------------| 
G|--x-7--x-7--x-----x----x-8--x-8--x----x------------------------------------| 
D|--x-9--x-9--x-----x-9--x-7--x-7--x----x------------------------------------| 
A|--x-7--x-7--x-10-------x-9--x-9--x-6--x-9----------------------------------| 
E|-----------------------x-7--x-7--------------------------------------------| 
             Maybe tomorrow 
e|--x-5--x-5--x----x-----x-7-------------------------------------------------| 
B|--x-5--x-5--x----x-----x-7-------------------------------------------------| 
G|--x-5--x-5--x----x-----x-8-------------------------------------------------| 
D|--x-7--x-7--x----x-----x-7-------------------------------------------------| 
A|--x-7--x-7--x----x-7---x-9-------------------------------------------------| 
E|--x-5--x-5--x-8--------x-7-------------------------------------------------| 
               I'll find a better dream for me 
 
1st Guitar solo: 
e|---------------------------------------------------------------------------| 
B|---------------------------------------------------------------------------| 
G|--2b3b2-0-2-0--------------------------------------------------------------| 
D|--------------2---------2----1-2--4-4--------------------------------------| 
A|---------------------------------------------------------------------------| 
E|---------------------------------------------------------------------------| 
 
e|-----3--------0-----0------------------------------------------------------| 
B|-3-5----5p3-0--------------------------------------------------------------| 
G|----------------2b3---2b3b2-0----------------------------------------------| 
D|------------------------------2-0-1-2-0------------------------------------| 
A|----------------------------------------2-1-0h1p0---0h1p0---0h1p0----------| 
E|--------------------------------------------------3-------3--------3-0-----|
Verse: Em7 B7 A shiver in my soul Am B7 Oh, I think I'm gonna go Em7 B7 But in the depth of my mind Am D There's a place that only I have seen Em7 D B7 Will it ever be reality Chorus 2nd Guitar Solo: Can't figure this one out, so I just play the verse chords through here.
Bridge 
e|----------------------x-5--x-5--x----x----{x-7--x-7--x-----x--}   ---------| 
B|--x-7--x-7--x----x----x-5--x-5--x----x----{x-8--x-8--x-----x--}   ---------| 
G|--x-7--x-7--x----x----x-5--x-5--x----x----{x-7--x-7--x-----x--} x2---------| 
D|--x-7--x-7--x----x-7--x-7--x-7--x----x----{x-9--x-9--x-----x-9}   ---------| 
A|--x-5--x-5--x-8-------x-7--x-7--x-4--x-7--{x-7--x-7--x-10-----}   ---------| 
E|----------------------x-5--x-5---------------------------------   ---------| 
                       And no matter how hard I try 
e|----------------------x-5--x-5--x----x----x-7--x-7--x-----x-------7--------| 
B|--x-7--x-7--x----x----x-5--x-5--x----x----x-8--x-8--x-----x-------10-------| 
G|--x-7--x-7--x----x----x-5--x-5--x----x----x-7--x-7--x-----x-------8--------| 
D|--x-7--x-7--x----x-7--x-7--x-7--x----x----x-9--x-9--x-----x-9-----7--------| 
A|--x-5--x-5--x-8-------x-7--x-7--x-4--x-7--x-7--x-7--x-10----------9--------| 
E|----------------------x-5--x-5------------------------------------7--------| 
                       Well I just can't seem to open up my eyes     HEY! 
 
Chorus 
 
Interlude: 
e|---------------------------------------------------------------------------| 
B|---------------------------------------------------------------------------| 
G|---------------------------------------------------------------------------| 
D|---------9---------9-------------------------------------------------------| 
A|--7--10-----7--10--------6--9-----6--9--------7--------7-----6--9-----6--9-| 
E|----------------------7--------7--------5--8-----5--8-----7--------7-------| 
 
e|------------------------------------------------------------7--------------| 
B|------------------------------------------------------------7--------------| 
G|------------------------------------------------------------8--------------| 
D|---------9---------9----------------------------------------7--------------| 
A|--7--10-----7--10--------6--9-----6--9--------7--------7----9--------------| 
E|----------------------7--------7--------5--8-----5--8-------7--------------| 
 
Outro Guitar Solo: 
Can't figure this one out either.  Once again just play the verse it sounds good. 
 
Chords Used: 
          Em7              B7                Am                D 
e|---------7----------------7-----------------5------------------------------| 
B|---------8----------------7-----------------5----------------7-------------| 
G|---------7----------------8-----------------5----------------7-------------| 
D|---------9----------------7-----------------7----------------7-------------| 
A|---------7----------------9-----------------7----------------5-------------| 
E|--------------------------7-----------------5------------------------------|

Compartilhe esta música: novo

QR Code
Copiar