Anna JuliaCifra Verificada

Los Hermanos

Tom: E
   
   
Afinação: Eb Ab Db Gb Bb eb  
   
Introdução: E C#m  
   
  E            C#m            G#m    A          B    E   
 Quem te ver passar assim por mim não sabe o que é sofrer   
         C#m        G#m    A        B   
 Ter que ver você assim sempre tão linda   
 E            C#m          G#m   A     B     E   
 Contemplar o sol do teu olhar perder você no ar   
       C#m         G#m A     B      C#m   
 Na certeza de um amor me achar um nada   
                    G#m                 A   
 Pois sem ter teu carinho eu me sinto sozinho   
                 B            
 Eu me afogo em so...li....dão   
    
E A B Ô ô Anna Julia...a...a...a...a E A B Ô ô Anna Julia...a...a...a...a
E C#m G#m A B E Nunca acreditei na ilusão de ter você pra mim C#m G#m A B Me atormenta a previsão do nosso destino E C#m G#m A B E Eu passando o dia a te esperar, você sem me notar C#m G#m A B C#m Quando tudo tiver fim, você vai estar com um cara G#m A Um alguém sem carinho será sempre um espinho B Dentro do meu co...ra...ção Refrão
Solo:   
(E A B E A B E A B E A B C#m Abm A B C#m G#m A B)   
   
eb|---------------------------|-----------------------------------|  
Bb|---------------------------|-----------------------------------|  
Gb|---------------------------|-/9-9-9-11-9--/9-9-9-11-9-8-9------|  
Db|---------------------------|-------------------------------11\-|  
Ab|-6/7-7-7-9-7-6/7-7-7-9-7-6-|-------------------------------11\-|  
Eb|---------------------------|-----------------------------------|  
                           (2x)  

eb|----------------------------------------12-11---------------|  
Bb|------------5-4-------------------------------12-14--16-17--|  
Gb|----------------4-6--4-2-4----------------------------------|  
Db|----------------------------2-4-2-4/------------------------|  
Ab|-2-4-2-4----------------------------------------------------|  
Eb|------------------------------------------------------------|  

eb|------------------------------------------------------|  
Bb|-17/19-19-19-19-19-19-19-19/21---19-17-21-19-17-17----|  
Gb|------------------------------------------------------|  
Db|------------------------------------------------------|  
Ab|------------------------------------------------------|  
Eb|------------------------------------------------------|
C#m G#m A E Sei que você já não quer o meu amor C#m G#m A E Sei que você já não gosta de mim C#m G#m A E Eu sei que eu não sou quem você sempre sonhou C#m G#m A B Mas vou reconquistar o seu amor todo pra mim
E A B Ô ô Anna Julia...a...a...a...a E A B Ô ô Anna Julia...a...a...a...a E A B Ô ô Anna Julia...a...a...a...a E A B E Ô ô Anna Julia...Julia, Julia...ou ou ou

Compartilhe esta música: novo

QR Code
Copiar