Tom: F
 
E|--------------------------------------------------------------- 
B|--------------------------------------------------------------- 
G|--------------------------------------------------------------- 
D|---------------------------------------------------------------   x7 
A|-------------------------------0-0-0-0-0------0-0-0-0-0-------- 
E|-1-1-1-1-1-3h5--0-0-0-0-0-3h5------------3h5-------------3h5--- 
Y todo lo que nunca fue y lo que no dejamos de ser tratamos de taparlo con un dedo
 
     F         Em        Am 
E|--8---------7---------5----------- 
B|--10--------8---------5----------- 
G|--10--------9---------5----------- 
D|--10--------9---------7----------- 
A|--8---------7---------7----------- 
E|--8---------7---------5----------- 
(F Em Am)(x2) F Em Y todo lo que nunca fue Am y lo que no dejamos ser F Em Am tratamos de taparlo con un dedo F Em Y sin embargo vuelvo a empezar Am no tiene caso esperar nunca pensé en consecuencias ya no vuelve a pasar F Em ya no soporto los domingos Am son lo mismo, son lo mismo es una telenovela que no quiero mirar F Ay control de mujer Em y lo encubre tu piel Am eres criminal y delatora a la vez F Em Am tratamos de taparlo con un dedo F Em Y sigue todo igual sigue lento A sigue frió sigue sin parecer tener algo divino F Em es un rompecabezas de miles de piezas Am que ya no quiero armar ya no pretendo armar F Em Y cuando pude estar seguro Am De que seria yo ninguno F Em Am volaste como arena con el viento F Em Am trataste de taparlo con un dedo OOOHHH F Ay control de mujer Em y lo encubre tu piel Am eres criminal y delatora a la vez F Em Am tratamos de taparlo con un dedo OOOOHH F El complot de tu piel Em y tu forma de ser Am cometen ese crimen que se llama mujer F Em Am y siempre lo tapamos con un dedo. uuhh solo wah/dis
 
E|-------------- 
B|-------------- 
G|--7b--5b------ 
D|--------------  X infinidad de veces 
A|-------------- 
E|-------------- 
F Hay complot de tu piel Em y tu forma de ser Am cometen ese crimen que se llama mujer F Em Am y siempre lo tapamos con un dedo. OOOHH Ultimo Verso Leonardo y Jonas cantan juntos: F Ay control de mujer Em y lo sabe tu piel Am eres criminal y delatora a la vez F Em Am tratamos de taparlo con un dedo (Y sin embargo vuelvo a empezar no tiene caso esperar nunca pensé en consecuencias ya no vuelve a pasar ya no soporto los domingos son lo mismo, son lo mismo es una telenovela.) Termina con el intro y al final:
 
E|-------------------------------- 
B|-------------------------------- 
G|-------------------------------- 
D|-------------------------------- 
A|-------------------------------0 
E|-1-1-1-1-1-3h5--0-0-0-0-0-3h5---

Compartilhe esta música: novo

QR Code
Copiar