Murió La Flor

Los Angeles Negros

Tom: Dm
Intro 
e|-----------------------------------------------------------| 
B|-----------------------------------------------------------| 
G|-----------------------------------------------------------| 
D|-----------2-----------0-------0---------------------------| 
A|--0--2--3-----3--2--0-------2-----2--3----0--3--0--2----0--| 
E|-----------------------------------------------------------| 
e|-----------------------------------------------------------| 
B|-----------------------------------------------------------| 
G|-----------------------------------------------------------| 
D|-----------2-----------0-------0---------------------------| 
A|--0--2--3-----3--2--0-------2-----2--3----0--2-------------| 
E|------------------------------------------------4--5-------| 
Verso Dm Desde hace tiempo espero yo Am E Am Oír tu vos, sentir tu amor Dm Y ya no se lo que es reír Am E Am No se vivir si tu no estas Dm Cada rumor que llega a mi Am E Am Me hace sonar que estas aquí Dm Siento tu cuerpo junto a mi Am E Am Y al despertar tu ya no estas Coro Dm G7 Murió la flor en mi C Am Tu esencia se quedo Dm E Y tu risa infantil A7 Creo escuchar Dm G7 Las noches frías son C Am No brilla mas el sol Dm E Desde que tu no estas Am Llorando estoy Verso Dm Am E Am x2 Coro Dm G7 Murió la flor en mi C Am Tu esencia se quedo Dm E Y tu risa infantil A7 Creo escuchar Dm G7 Las noches frías son C Am No brilla mas el sol Dm E Desde que tu no estas Am Llorando estoy Conclusión Dm G7 La la la la la la C Am La la la la la Dm G7 la la la la la la A7 La la la la Outro Dm G7 C Am Dm G7 A7

Compartilhe esta música: novo

QR Code
Copiar