Party Rock Anthem (feat. Lauren Bennet)

LMFAO

Tom: Em
INTRO 
e |--------------------|  
B |--------------------|  
G |--------------------|  
D |--------------------|  
A |--------------5h7---|  
E |-0-0-0-0-0-0-0-0----|  
Em7 D C9 Party Rock is in the house tonight Em7 D C9 Everybody Just have a good time Em7 D C9 And we gon make you lose yo mind Em7 D C9 Everybody Just have a good time Em7 D C9 Party Rock is in the house tonight Em7 D C9 Everybody Just have a good time Em7 D C9 And we gon make you lose yo mind Em7 D C9 We just wanna see ya... shake that
RIFF  
(can't be heard that clearly in the video but just copies the rhythm of the lead part) 
e |---------3--3-----3--3----------------|  
B |---------3--3-----3--3----------------|  
G |---------0--0-----0--0----------------|   
D |-2-2-2-2-----2-2------2--2-2-2--------|  x2 
A |-2-2-2-2-----2-2------2--2-2-2--------|  
E |-0-0-0-0-----0-0------0--0-0-0----3~~-|  

e |---------3--3-----3--3------------5---|  
B |---------3--3-----3--3------------5---|  
G |-0-0-0-0-0--00-0--0--00--0-0-0----0---|  then repeat the other 
D |-2-2-2-2-----2-2------2--2-2-2----4---|       bit once 
A |-3-3-3-3-----3-3------3--3-3-3----5---|  
E |--------------------------------------|  
VERSE 1 (most of the song is just Em7 - D - C from here. However, i played the chords in a few different places to make it more interesting. Skip to the end to see tabs for the different chord positions) Em7 In the club Party Rock D C Lookin for ya girl? She on my jock Em7 Nonstop when we in the spot D C Booty movin weight like she own the block Where the drank?I gots to know, tight jeans tattoo cuz I'm rock n roll Half black half white domino Gang of money Oprah doe Oh I'm runnin through these hoes like drano I got that devilish flow rock n' roll no halo We PartyRock!! Yea that's the crew that I'm reppin On a rise to the top no Led in our Zepplin! REPEAT CHORUS REPEAT RIFF VERSE 2 Step up fast And be the first girl to make me throw this cash We gettin money don't be mad Now stop, hatin is bad One mo shot for us (another round) Please fill up my cup (don't mess around) We just wanna see (ya shake it now) Now you home with me BRIDGE Get up, get down, put yo hands up to the sound Get up, get down, put yo hands up to the sound Get up, get down, put yo hands up to the sound to the sound, to the sound, to the sound
 
e |--0---0---0---0---|  
B |--0---0---0---0---|  
G |--(b9)--7---5---6-|  
D |--0---0---0---0---|  
A |--7---5---3---4---|  
E |--0---0---0---0---| 

REPEAT CHORUS HIGH FIVE AS NECESSARY *CHORDS POSITIONS FOR THE VERSES*
VERSE 1 
    Em7   D    C 
e |---7----5----3---|  
B |---8----7----5---|  
G |---7----7----5---|  
D |---(b9)---7----5-|  
A |---7----5----3---|  
E |-----------------|  

VERSE 2 
    Em7   D    C 
e |-----------------|  
B |-----------------|  
G |---(b9)---11---12|  
D |---x----x----x---|  
A |---7----(b9)---10|  
E |---0----10---8---|

Compartilhe esta música: novo

QR Code
Copiar