It's So Easy

Linda Ronstadt

Tom: E
INTRO:/=slide up  \=slide down  h=hammer b=bend  
  
--------------------------------------------|  
--------------------------------------------|  
--------------------------------------------|  
---------2--4/6--6\4--4--6\4--2------2--4---|  
--2--4----------------------------4---------|  
--------------------------------------------|  
  
  
--------------------------------------------------|  
--------------------------------------------------|  
--------------------------------------------------|  
-------2--4/6--4--2-----2--4/6\4--2---------------|  
--2h4----------------4---------------4--2---------|  
--------------------------------------------3b--0-|
E B A B It's so easy to fall in love E A B A (G) E It's so easy to fall in love E B A B People tell me love's for fools E A B A (G) E But here I go making eyes at you CHORUS: A 'cause its so easy, (background vocals):it's so easy, it's so easy, its so easy....... E so doggone easy A it seems so easy F# B where you're concerned, my heart has learned E B A B oh, whoa, oh, it's so easy to fall in love E A B A (G) E it's so easy to fall in love. LEAD: is the same as the intro. 2nd VERSE: E B A B Look into your heart and see, E A B (G) E that your love could be set apart from me.

Compartilhe esta música: novo

QR Code
Copiar